Oops, an error
Loading. Please wait.
We have an official Pretty On The Outside tab made by UG professional guitarists. Check out the tab »
×
5,052 views 1 this week
1 commentread comment
1 2 3 4 5
x 3
add to favorites
×
Save as Personal and add changes to this tab that will be seen only by you. Learn more ›
×
You can save this tab as Personal to edit and correct it or add notes. All changes will be seen only by you. Learn more »
launch autoscroll
font size
0
reset
guitar tuner
edit
Autoscroll
slow
fast
+/-
esc
set tempo
stop
Intro:

(0:07)
|--------------------------------------|
|--------------------------------------|
|--------------------------------------|
|-4-4--4--4-4~~~~----4-4--4--4-4--4--4-|

(0:10)
|--------------------------------------|
|--------------------------------------|
|--------------------------------------|
|-0-0--0--0-0~~~~----0-0--0--0-0--0--0-|

(0:14)
|--------------------------------------|
|--------------------------------------|
|--------------------------------------|
|-4-4--4--4-4~~~~----4-4--4--4-4--4--4-|

(0:17)
|----------------------------------------|
|----------------------------------------|
|----------------------------------------|
|-2-2--2--2-2~~~~----2-2--2--2-2--2--2-2-|
                  
(0:21)
|--------------------------------------|
|--------------------------------------|
|--------------------------------------|
|-0-0--0--0-0~~~~----0-0--0--0-0--0--0-|

(0:24)
|--------------------------------------|
|--------------------------------------|
|--------------------------------------|
|-2-2--2--2-2~~~~----2-2--2--2-2--2--2-|

Pre-Verse:

(0:28)
|--------------------------------------------------|
|--------------------------------------------------|
|--------------------------------------------------|
|-4-----------4-----------4-----------16\\\\\\\----|

Verse 1:

(0:32)
|-------------------------------------------------|
|-------------------------------------------------|
|-------------------------------------------------|
|-4---4---4---4-4-4-4-4-4-4---4---4---4-4-4-4-4-4-|

(0:35)
|-------------------------------------------------|
|-------------------------------------------------|
|-------------------------------------------------|
|-0---0---0---0-0-0-0-0-0-0---0---0---0-0-0-0-0-0-|

(0:38)
|-------------------------------------------------|
|-------------------------------------------------|
|-------------------------------------------------|
|-4---4---4---4-4-4-4-4-4-4---4---4---4-4-4-4-4-4-|

(0:42)
|-------------------------------------------------|
|-------------------------------------------------|
|-------------------------------------------------|
|-0---0---0---0-0-0-0-0-0-0---0---0---0-0-0-0-0-0-|

(0:45)
|-------------------------------------------------|
|-------------------------------------------------|
|-------------------------------------------------|
|-4---4---4---4-4-4-4-4-4-4---4---4---4-4-4-4-4-4-|

(0:49)
|-------------------------------------------------|
|-------------------------------------------------|
|-------------------------------------------------|
|-0---0---0---0-0-0-0-0-0-0---0---0---0-0-0-0-0-0-|

(0:52)
|-------------------------------------------------|
|-------------------------------------------------|
|-------------------------------------------------|
|-4---4---4---4-4-4-4-4-4-4---4---4---4-4-4-4-4-4-|

(0:56)
|-------------------------------------------------|
|-------------------------------------------------|
|-------------------------------------------------|
|-0---0---0---0-0-0-0-0-0-0---0---0---0-0-0-0-0-0-|

Pre-Chorus:

(1:00)
|-----------------------------------------|
|-----------------------------------------|
|-----------------------------------------|
|-2~~~~~~~~~~----2~~~~~~~~~----0~~~~~~~~~-|

Chorus (Intro):

(1:07-1:28)
|--------------------------------------|
|--------------------------------------|
|--------------------------------------|
|-4-4--4--4-4~~~~----4-4--4--4-4--4--4-|

|--------------------------------------|
|--------------------------------------|
|--------------------------------------
|-0-0--0--0-0~~~~----0-0--0--0-0--0--0-|

|--------------------------------------|
|--------------------------------------|
|--------------------------------------|
|-4-4--4--4-4~~~~----4-4--4--4-4--4--4-|

|----------------------------------------|
|----------------------------------------|
|----------------------------------------|
|-2-2--2--2-2~~~~----2-2--2--2-2--2--2-2-|
                  
|--------------------------------------|
|--------------------------------------|
|--------------------------------------|
|-0-0--0--0-0~~~~----0-0--0--0-0--0--0-|

|--------------------------------------|
|--------------------------------------|
|--------------------------------------|
|-2-2--2--2-2~~~~----2-2--2--2-2--2--2-|

Pre-Verse:

(1:28-1:32)
|--------------------------------------------------|
|--------------------------------------------------|
|--------------------------------------------------|
|-4-----------4-----------4-----------16\\\\\\\----|


Verse 2:

(1:32)
|-------------------------------------------------|
|-------------------------------------------------|
|-------------------------------------------------|
|-4---4---4---4-4-4-4-4-4-4---4---4---4-4-4-4-4-4-|

(1:35)
|-------------------------------------------------|
|-------------------------------------------------|
|-------------------------------------------------|
|-0---0---0---0-0-0-0-0-0-0---0---0---0-0-0-0-0-0-|

(1:39)
|-------------------------------------------------|
|-------------------------------------------------|
|-------------------------------------------------|
|-4---4---4---4-4-4-4-4-4-4---4---4---4-4-4-4-4-4-|

(1:42)
|-------------------------------------------------|
|-------------------------------------------------|
|-------------------------------------------------|
|-0---0---0---0-0-0-0-0-0-0---0---0---0-0-0-0-0-0-|

Pre-Chorus:

(1:46)
|-----------------------------------------|
|-----------------------------------------|
|-----------------------------------------|
|-2~~~~~~~~~~----2~~~~~~~~~----0~~~~~~~~~-|

Chorus (Intro):

(1:53-2:13)
|--------------------------------------|
|--------------------------------------|
|--------------------------------------|
|-4-4--4--4-4~~~~----4-4--4--4-4--4--4-|

|--------------------------------------|
|--------------------------------------|
|--------------------------------------
|-0-0--0--0-0~~~~----0-0--0--0-0--0--0-|

|--------------------------------------|
|--------------------------------------|
|--------------------------------------|
|-4-4--4--4-4~~~~----4-4--4--4-4--4--4-|

|----------------------------------------|
|----------------------------------------|
|----------------------------------------|
|-2-2--2--2-2~~~~----2-2--2--2-2--2--2-2-|
                  
|--------------------------------------|
|--------------------------------------|
|--------------------------------------|
|-0-0--0--0-0~~~~----0-0--0--0-0--0--0-|

|--------------------------------------|
|--------------------------------------|
|--------------------------------------|
|-2-2--2--2-2~~~~----2-2--2--2-2--2--2-|

Bridge:

(2:14)
|-------------------------------------------------|
|-------------------------------------------------|
|-------------------------------------------------|
|-4~~~~~~~~~~~~~~~~-------------------------------|

(2:17)
|-------------------------------------------------|
|-------------------------------------------------|
|-------------------------------------------------|
|-0~~~~~~~~~~~~~~~~-------------------------------|

(2:21)
|-------------------------------------------------|
|-------------------------------------------------|
|-------------------------------------------------|
|-2~~~~~~~~~~~~~~~~-------------------------------|

(2:25)
|-------------------------------------------------|
|-------------------------------------------------|
|-4~~~~~~~~~~~~~~~~-------------------------------|
|-------------------------------------------------|

(2:28)
|-------------------------------------------------|
|-------------------------------------------------|
|-------------------------------------------------|
|-4-4-4-4-4-4-4-----------4-4-4-4-4-4-4-----------|

(2:32)
|-------------------------------------------------|
|-------------------------------------------------|
|-------------------------------------------------|
|-0-0-0-0-0-0-0-----------0-0-0-0-0-0-0-----------|

(2:35)
|-------------------------------------------------|
|-------------------------------------------------|
|-------------------------------------------------|
|-2-2-2-2-2-2-2-----------2-2-2-2-2-2-2-----------|

(2:39)
|-------------------------------------------------|
|-------------------------------------------------|
|-4-4-4-4-4-4-4-----------4-4-4-4-4-4-4-----------|
|-------------------------------------------------|

(2:42)
|-------------------------------------------------|
|-------------------------------------------------|
|-4-4-4-4-4-4-4-4-4-4-4-4-4-4-4-4-4-4-4-4-4-4-4-4-|
|-------------------------------------------------|

(2:46)
|-------------------------------------------------|
|-------------------------------------------------|
|-6-6-6-6-6-6-6-6-6-6-6-6-6-6-6-6-6-6-6-6-6-6-6-6-|
|-------------------------------------------------|

(2:49)
|-------------------------------------------------|
|-------------------------------------------------|
|-7-7-7-7-7-7-7-7-7-7-7-7-7-7-7-7-7-7-7-7-7-7-7-7-|
|-------------------------------------------------|

(2:53)
|-------------------------------------------------|
|-------------------------------------------------|
|-6-6-6-6-6-6-6-6-6-6-6-6-6-6-6-6-6-6-6-6-6-6-6-6-|
|-------------------------------------------------|

Chorus (Intro):

(3:04-3:24)
|--------------------------------------|
|--------------------------------------|
|--------------------------------------|
|-4-4--4--4-4~~~~----4-4--4--4-4--4--4-|

|--------------------------------------|
|--------------------------------------|
|--------------------------------------
|-0-0--0--0-0~~~~----0-0--0--0-0--0--0-|

|--------------------------------------|
|--------------------------------------|
|--------------------------------------|
|-4-4--4--4-4~~~~----4-4--4--4-4--4--4-|

|----------------------------------------|
|----------------------------------------|
|----------------------------------------|
|-2-2--2--2-2~~~~----2-2--2--2-2--2--2-2-|
                  
|--------------------------------------|
|--------------------------------------|
|--------------------------------------|
|-0-0--0--0-0~~~~----0-0--0--0-0--0--0-|

|--------------------------------------|
|--------------------------------------|
|--------------------------------------|
|-2-2--2--2-2~~~~----2-2--2--2-2--2--2-|

Outro(Verse 1):

(3:25-3:56)
|-------------------------------------------------|
|-------------------------------------------------|
|-------------------------------------------------|
|-4---4---4---4-4-4-4-4-4-4---4---4---4-4-4-4-4-4-|

|-------------------------------------------------|
|-------------------------------------------------|
|-------------------------------------------------|
|-0---0---0---0-0-0-0-0-0-0---0---0---0-0-0-0-0-0-|

|-------------------------------------------------|
|-------------------------------------------------|
|-------------------------------------------------|
|-4---4---4---4-4-4-4-4-4-4---4---4---4-4-4-4-4-4-|

|-------------------------------------------------|
|-------------------------------------------------|
|-------------------------------------------------|
|-0---0---0---0-0-0-0-0-0-0---0---0---0-0-0-0-0-0-|

|-------------------------------------------------|
|-------------------------------------------------|
|-------------------------------------------------|
|-4---4---4---4-4-4-4-4-4-4---4---4---4-4-4-4-4-4-|

|-------------------------------------------------|
|-------------------------------------------------|
|-------------------------------------------------|
|-0---0---0---0-0-0-0-0-0-0---0---0---0-0-0-0-0-0-|

|-------------------------------------------------|
|-------------------------------------------------|
|-------------------------------------------------|
|-4---4---4---4-4-4-4-4-4-4---4---4---4-4-4-4-4-4-|

|-------------------------------------------------|
|-------------------------------------------------|
|-------------------------------------------------|
|-0---0---0---0-0-0-0-0-0-0---0---0---0-0-0-0-0-0-|

            
            
Suggest correction
Creating personal tab
Creating personal tab
You can edit any tab online and save it as your Personal.

You can edit, replace or remove any tab part or add personal notes – all changes will be seen only by you.

Personal tabs can be accessed anytime from any device, even offline.
Learn more »
Give kudos to tab author, rate the tab!
1 2 3 4 5
comments
print report bad tab
1 comment total.
0 reply
l3ell1996 10 Jul 02, 2010 11:12 AM

Yeah, this is my tab. I wasn't logged in when I posted it. And I messed up on the tuning. It was meant to be Drop C.

guest
Wanna post a correction for this tab? Suggest correction