Oops, an error
Loading. Please wait.

Raising Hell Bass Tab

version 1
version 1

Whole song

Interactive

1,351 views 1 this week
no commentswrite comment
1 2 3 4 5
x 4
add to favorites
launch autoscroll
font size
0
reset
guitar tuner
Autoscroll
slow
fast
+/-
esc
set tempo
stop
Help us to improve Ultimate-Guitar.com Take our survey!
×
Author
Difficulty
Tuning
intermediate
D G C F A D
-------------------------------------------------------------------------------
                      Raising Hell - Bullet For My Valentine
-------------------------------------------------------------------------------
Tabbed by: Andu Needle
E-mail: sulfur_in_my_lungs@yahoo.com

Intro:

F|-----------------------------------------------------------------|
C|-----------------------------------------------------------------|
G|----1~----1~-3~--------------------------------------------------|
D|-0~----0~-------0------------------------------------------------|

F|-----------------------------------------------------------------|
C|-----------------------------------------------------------------|
G|-------------------------111-133---------------------------------|
D|-0-0-0-0-0-0-0-0-0-0-0-0-----------------------------------------|

Main riff:

F|-----------------------------------------------------------------|
C|-----------------------------------------------------------------|
G|-----------------------------------------------------------------|
D|-6000-0000(x3)-6p0-5p0-3p0-5p0-----------------------------------|(x3)

F|-----------------------------------------------------------------|
C|-----------------------------------------------------------------|
G|---------------111-133-------------------------------------------|
D|-6000-0000(x2)---------------------------------------------------|

Verse:

F|-----------------------------------------------------------------|
C|-----------------------------------------------------------------|
G|-----------------------------------------------------------------|
D|-6000-0000-6000-00-(stop)-00-0000-6p0-5p0-3p0-5p0----------------|(x3)

F|-----------------------------------------------------------------|
C|-----------------------------------------------------------------|
G|-------------------111-133---------------------------------------|
D|-6000-0000-6000-00-----------------------------------------------|

After this part is basically the intro played normal!

Break before chorus:

F|-----------------------------------------------------------------|
C|-----------------------------------------------------------------|
G|-----------------------------------------------------------------|
D|-0000-0000-00----------------------------------------------------|

Chorus:

F|-----------------------------------------------------------------|
C|-----------------------------------------------------------------|
G|-------------------22222202-3333-5555----------------------------|
D|-00000000-33333333-----------------------------------------------|(x2)

Before verse 2 is the "-111-133-" part.
Verse 2 is the same as the first one!
Break before chorus is the same but it is played twice!
Chorus 2 is the same as the first one!

Fill before solo:

F|-----------------------------------------------------------------|
C|-/7~-5~----------------------------------------------------------|
G|--------7~-------------------------------------------------------|
D|-----------------------------------------------------------------|

Solo:

F|-----------------------------------------------------------------|
C|-----------------------------------------------------------------|
G|-----------------------------------------------------------------|
D|-6000-0000(x3)-3-5-6---------------------------------------------|
                                                                    >(x2)
F|-----------------------------------------------------------------|
C|-----------------------------------------------------------------|
G|-----------------------------------------------------------------|
D|-6000-0000(x2)-5-3-5-6-5-3---------------------------------------|

F|-----------------------------------------------------------------|
C|-----------------------------------------------------------------|
G|-----------------------------------------------------------------|
D|-0-0-0-0--5-3-5-6-5-3--------------------------------------------|

F|-----------------------------------------------------------------|
C|-----------------------------------------------------------------|
G|-----------------------------------------------------------------|
D|-6000-0000(x3)-3-5-6---------------------------------------------|

F|-----------------------------------------------------------------|
C|-----------------------------------------------------------------|
G|-----------------------------------------------------------------|
D|-6000-0000(x2)-5-3-5-6-5-3---------------------------------------|

And the last time you play the part "-5-3-5-6-5-3-" for 3 times!

The last chorus is the as the others!

The ending note is a D (0~).
Suggest correction
comments
print report bad tab
guest
You may want to rate the tab now too:
select rating
Wanna post a correction for this tab? Suggest correction