Oops, an error
Loading. Please wait.

Riot Bass Tab

version 1
version 1

Whole song

Interactive

2,999 views 3 this week
no commentswrite comment
1 2 3 4 5
x 7
add to favorites
launch autoscroll
font size
0
reset
guitar tuner
Autoscroll
slow
fast
+/-
esc
set tempo
stop
Help us to improve Ultimate-Guitar.com Take our survey!
×
Author
Difficulty
Tuning
advanced
C G C F A D
-----------------------------------------------------------------------------
                             Riot - Bullet For My Valentine
-----------------------------------------------------------------------------
Tabbed by: Andu Needle
E-mail: sulfur_in_my_lungs@yahoo.com

Intro:

F|----------------------------------------------------------------|
C|-3-----3-5------------------------------------------------------|
G|---1-0-----3----------------------------------------------------|
C|-------------0--------------------------------------------------|(x2)


F|----------------------------------------------------------------|
C|-3-----3-5------------------------------------------------------|
G|---1-0-----3----------------------------------------------------|
C|-------------0000-0000-0000-0-----------------------------------|(x2)

F|----------------------------------------------------------------|
C|-3-----3-5------------------------------------------------------|
G|---1-0-----3-1~-------------------------------------------------|
C|----------------------------------------------------------------|

The little part before verse:

F|----------------------------------------------------------------|
C|-3-----3-5------------------------------------------------------|
G|---1-0-----3----------------------------------------------------|
C|----------------------------------------------------------------|

Verse:

F|----------------------------------------------------------------|
C|----------------------------------------------------------------|
G|------------------3~--------------------------------------------|
C|-000-000--000-000-----------------------------------------------|(x3)

F|----------------------------------------------------------------|
C|----------------------------------------------------------------|
G|------------------351~------------------------------------------|
C|-000-000--000-000-----------------------------------------------|

Chorus:

F|-----------------------------------------------------------------|
C|-3-----3-5-------------------------------------------------------|
G|---1-0-----3-----------------------------------------------------|
C|-------------0000-0000-0000-0------------------------------------|(x2)

F|-----------------------------------------------------------------|
C|-3-----3-5-------------------------------------------------------|
G|---1-0-----3-----------------------------------------------------|
C|-----------------------------------------------------------------|

The rhythm is very tricky here. Listen to it close!

F|-----------------------------------------------------------------|
C|-----------------------------------------------------------------|
G|-----------------------------------------------------------------|
C|-00~-0000-00~-0000-00~-0000-0------------------------------------|

F|-----------------------------------------------------------------|
C|-3-----3-5-------------------------------------------------------|
G|---1-0-----3-----------------------------------------------------|
C|-------------0000-0000-0000-0------------------------------------|

F|-----------------------------------------------------------------|
C|-3-----3-5-------------------------------------------------------|
G|---1-0-----3-1~--------------------------------------------------|
C|-----------------------------------------------------------------|

The second verse is the same as the first!
The second chorus is the same as the first!

Solo:

F|------------------------------------------------------------------|
C|------------------------------------------------------------------|
G|-1~-3~------------------------------------------------------------|
C|------------------------------------------------------------------|

F|------------------------------------------------------------------|
C|------------------------------------------------------------------|
G|-35------35----------35------35----------35------35---------------|
C|----0000----00000000----0000----00000000----0000----00000000------|

F|------------------------------------------------------------------|
C|------------------------------------------------------------------|
G|-66655533311333---------------------------------------------------|
C|------------------------------------------------------------------|

F|------------------------------------------------------------------|
C|------------------------------------------------------------------|
G|-35------35----------35------35----------35------35---------------|
C|----0000----00000000----0000----00000000----0000----00000000------|

F|------------------------------------------------------------------|
C|------------------------------------------------------------------|
G|-6665553331~-3~---------------------------------------------------|
C|------------------------------------------------------------------|

After the solo you go straight into the chorus!

Outro:

F|-----------------------------------------------------------------|
C|-3-----3-5-------------------------------------------------------|
G|---1-0-----3-----------------------------------------------------|
C|-------------0---------------------------------------------------|(x2)

F|-----------------------------------------------------------------|
C|-3-----3-5-------------------------------------------------------|
G|---1-0-----3-----------------------------------------------------|
C|-------------000000----------------------------------------------|
Suggest correction
comments
print report bad tab
guest
You may want to rate the tab now too:
select rating
Wanna post a correction for this tab? Suggest correction