Oops, an error
Loading. Please wait.

Riot Tab

version 1
version 1

Whole song

Interactive

32,363 views 21 this week
13 commentsread comments
1 2 3 4 5
x 11
add to favorites
launch autoscroll
font size
0
reset
how to read this tab
guitar tuner
×
Best way to learn
"Riot"
Autoscroll
slow
fast
+/-
esc
set tempo
stop
Author
[Intro]
e|----------------------------------------------------|
B|----------------------------------------------------|
G|----------------------------------------------------|
D|-3-----3/5------------------------------------------|
A|---1-0-----3----------------------------------------|
E|-------------0--0--0--0--0--0--0--0--0--0--0--0--0--|

[Pre-Verse]
e|----------------------|
B|----------------------|
G|----------------5~~~--|
D|-3-----3/5------3~~~--|
A|---1-0-----3----1~~~--|
E|-------------0--------|

[Verse]
e|---------------------------------------------------|
B|---------------------------------------------2x----|
G|---------------------------------------------------|
D|-3---------3--------------------3---------3------5-|
A|---5------------------------------5--------------3-|
E|-----0---0---0----------------------0---0---0------|

e|---------------------------------------------------|
B|---------------------------------------------------|
G|---------------------------------------------------|
D|-3---------3-------3---5---6----3---------3------5-|
A|---5------------------------------5--------------3-|
E|-----0---0---0---0---0---0---0------0---0---0------|

e|--------------------------------------------------------|
B|--------------------------------------------------------|
G|-----------------------------------------------------5~-|
D|-3---------3-------3---5---6----3---------3------5-7-3~-|
A|---5------------------------------5--------------3-5-1~-|
E|-----0---0---0---0---0---0---0------0---0---0-----------|

[Chorus]
 Its  the Intro twice with this at the end:
 ('Here comes the sirens, here comes the law')
e|------------------------------------------------|
B|------------------------------------------------|
G|------------------------------------------------|
D|----------------------------------3-----3/5-----|
A|------------------------------------1-0-----3---|
E|--0-0-0-000--0-0-0-000--0-0-0-000-------------0-|
   . . . ...  . . . ...  . . . ...

e|-------------------------------------------------|
B|-------------------------------------------------|
G|-------------------------------------------------|
D|-------------------------------------3-----3/5---|
A|---------------------------------------1-0-----3-|
E|-0--0--0--0--0--0--0--0--0--0--0--0--------------|

[Verse]
e|---------------------------------------------------|
B|---------------------------------------------2x----|
G|---------------------------------------------------|
D|-3---------3--------------------3---------3------5-|
A|---5------------------------------5--------------3-|
E|-----0---0---0----------------------0---0---0------|

e|---------------------------------------------------|
B|---------------------------------------------------|
G|---------------------------------------------------|
D|-3---------3-------3---5---6----3---------3------5-|
A|---5------------------------------5--------------3-|
E|-----0---0---0---0---0---0---0------0---0---0------|

e|--------------------------------------------------------|
B|--------------------------------------------------------|
G|-----------------------------------------------------5~-|
D|-3---------3-------3---5---6----3---------3------5-7-3~-|
A|---5------------------------------5--------------3-5-1~-|
E|-----0---0---0---0---0---0---0------0---0---0-----------|

[Chorus]
 Its  the Intro twice with this at the end:
 ('Here comes the sirens, here comes the law')
e|------------------------------------------------|
B|------------------------------------------------|
G|------------------------------------------------|
D|----------------------------------3-----3/5-----|
A|------------------------------------1-0-----3---|
E|--0-0-0-000--0-0-0-000--0-0-0-000-------------0-|
   . . . ...  . . . ...  . . . ...

e|-------------------------------------------------|
B|-------------------------------------------------|
G|-------------------------------------------------|
D|-------------------------------------3-----3/5---|
A|---------------------------------------1-0-----3-|
E|-0--0--0--0--0--0--0--0--0--0--0--0--------------|

[Solo] 
e|------------|-8-5-------5-8/11-8-------11/14-11-------|
B|------------|-----7---7----------10-10---------13--13-|
G|------------|-------5--------------8-------------11---|
D|-3~~~--5~~~-|-----------------------------------------|
A|-1~~~--3~~~-|-----------------------------------------|
E|------------|-----------------------------------------|

e|-14/17-14---------14-17--20-20-20-20-20-20-20-20-20-20-20b-|
B|---------16----16------------------------------------------|
G|------------14---------------------------------------------|
D|-----------------------------------------------------------|
A|-----------------------------------------------------------|
E|-----------------------------------------------------------|

 (Below, Padge uses a whammy bar and some harmonics that I can't 
 figure out. I think the notes are right though.)
e|-17~~----------------------------14--11-10-11-10-11-10--10-|
B|------13~-15~-18~-------------------------------------13---|
G|------------------0~~--5~~---------------------------------|
D|-----------------------5~~---------------------------------|
A|-----------------------------------------------------------|
E|----------------------------0~~----------------------------|

e|-------------------------------------------------------------|
B|-13-11-10-11-10-11-10--10------------------------------------|
G|---------------------12---12-11--11--10--9--8-7-6--5-7---5-7-|
D|-------------------------------13--12--11-10-9-8-7-----------|
A|-------------------------------------------------------------|
E|-------------------------------------------------------------|

e|----------------------10--------------12----------------------------|
B|-------8--7---10-11-13--13-11-11-13-15--15-13------17---17-18-17-18-|
G|-8--7-----------------------------------------17-19--19-------------|
D|--------------------------------------------------------------------|
A|--------------------------------------------------------------------|
E|--------------------------------------------------------------------|

e|---17-18-20-20b~~--|
B|-20----------------|
G|-------------------|
D|-------------------|
A|-------------------|
E|-------------------|
Then go back into the Chorus and your done. 

e|----------------------------|
B|----------------------------|
G|----------------------------|
D|-3~~~-5~~~------------------|
A|-1~~~-3~~~---/////////////--|
E|------------//PICKSLIDE//---|

e|----------------------------------------------|
B|----------------------------------------------|
G|----------------------------------------------|
D|-5/7------5/7----------5/7------5/7-----------|
A|-3/5------3/5----------3/5------3/5-----------|
E|-----0000-----00000000-----0000-----03005060--|
      ....     ........     ....     ........

e|--------------------------------------------------|
B|--------------------------------------------------|
G|--------------------------------------------------|
D|-5/7------5/7-------------------------------------|
A|-3/5------3/5---------6-6-6-5-5-5-3-3-3-1-1-3-3-3-|
E|-----0000-----00000000----------------------------|
      ....     ........     

e|----------------------------------------------|
B|----------------------------------------------|
G|----------------------------------------------|
D|-5/7------5/7----------5/7------5/7-----------|
A|-3/5------3/5----------3/5------3/5-----------|
E|-----0000-----00000000-----0000-----03005060--|
      ....     ........     ....     ........

e|------------------------------------------------|
B|------------------------------------------------|
G|------------------------------------------------|
D|-5/7------5/7----------------------------3~-5~--|
A|-3/5------3/5---------6-6-6-5-5-5-3-3-3--1~-3~--|
E|-----0000-----00000000--------------------------|
      ....     ........     

e|----------------------------------------|
B|----------------------------------------|
G|----------------------------------------|
D|----------------------------------------|
A|----------------------------------------|
E|-0--0--0--0--0--0--0--0--0--0--0--0--0--|

[Chorus]
 Its  the Intro twice with this at the end:
 ('Here comes the sirens, here comes the law')
e|------------------------------------------------|
B|------------------------------------------------|
G|------------------------------------------------|
D|----------------------------------3-----3/5-----|
A|------------------------------------1-0-----3---|
E|--0-0-0-000--0-0-0-000--0-0-0-000-------------0-|
   . . . ...  . . . ...  . . . ...

e|-------------------------------------------------|
B|-------------------------------------------------|
G|-------------------------------------------------|
D|-------------------------------------3-----3/5---|
A|---------------------------------------1-0-----3-|
E|-0--0--0--0--0--0--0--0--0--0--0--0--------------|


************************************

| /  Slide up
| ~  Vibrato
| x  Dead note
| .  Staccato
| b  Bend

************************************
Suggest correction
comments
print report bad tab
13 comments total. Showing first comments.
0 reply
Maexmon 166 Feb 14, 2013 06:01 AM

Nice dude!

0 reply
sumask 293 Feb 19, 2013 11:23 PM

thank you :3

0 reply
8anatikos7 10 Mar 04, 2013 08:38 AM

very good

guest
You may want to rate the tab now too:
select rating
Wanna post a correction for this tab? Suggest correction