Oops, an error
Loading. Please wait.

Room 409 tab

version 1
version 1

Whole song

105,084 views 33 this week
12 commentsread comments
1 2 3 4 5
x 28
add to favorites
×
Save as Personal and add changes to this tab that will be seen only by you. Learn more ›
×
You can save this tab as Personal to edit and correct it or add notes. All changes will be seen only by you. Learn more »
launch autoscroll
font size
0
reset
how to read this tab
guitar tuner
backing track
0:00
0:00
edit
Autoscroll
slow
fast
+/-
esc
set tempo
stop
[Intro]

D|---------------------------------------------------------------------------------------------------|
A|---------------------------------------------------------------------------------------------------|
F|---------------------------------------------------------------------------------------------------|
C|---------------------------------------------------------------------------------------------------|
G|--8-------8---------------7-------7---------------8-------8---------------7-------7----------------|
C|----0-0-0---0-0-0-000-000---0-0-0---0-0-0-000-000---0-0-0---0-0-0-000-000---0-0-0---0-0-0-7b-------|
pm    . . .   . . . ... ...   . . .   . . . ... ...   . . .   . . . ... ...   . . .   . . .

D|----------------------------------------------------------------------------------------------------|
A|----------------------------------------------------------------------------------------------------|
F|----------------------------------------------------------------------------------------------------|
C|----------------------------------------------------------------------------------------------------|
G|--8-------8---------------7-------7---------------8-------8---------------7h8-7h8~-7h8-7h8~-8-7-----|
C|----0-0-0---0-0-0-000-000---0-0-0---0-0-0-7-8-7-----0-0-0---0-0-0-000-000-----------------------8-5-|
pm    . . .   . . . ... ...   . . .   . . . ... ...   . . .   . . . ... ...

D|-----------------------------------------------------------------------------------------------------------|
A|-----------------------------------------------------------------------------------------------------------|
F|-----------------------------------------------------------------------------------------------------------|
C|-7--0-0-0--7--0-0-0----------5--0-0-0--5--0-0-0-------7--0-0-0--7--0=0-0--------------------------------0~-|
G|-7--0-0-0--7--0-0-0----------5--0-0-0--5--0-0-0-------7--0-0-0--7--0-0-0--------------------------------0~-|
C|-7--0-0-0--7--0-0-0-000-000--5--0-0-0--5--0-0-0--0-0--7--0-0-0--7--0-0-0--000-000----8--7--5--7--5--3---0~-|
pm                     ... ...                      . .                      ... ...  |THRASH THESE NOTES|

D|-----------------------------------------------------------------------------------------------------------|
A|-----------------------------------------------------------------------------------------------------------|
F|-----------------------------------------------------------------------------------------------------------|
C|-7--0-0-0--7--0-0-0----------5--0-0-0--5--0-0-0-------7--0-0-0--7--0=0-0-------------8--7--5--7--5--3---0~-|
G|-7--0-0-0--7--0-0-0----------5--0-0-0--5--0-0-0-------7--0-0-0--7--0-0-0-------------8--7--5--7--5--3---0~-|
C|-7--0-0-0--7--0-0-0-000-000--5--0-0-0--5--0-0-0--0-0--7--0-0-0--7--0-0-0--000-000----8--7--5--7--5--3---0~-|
pm                     ... ...                      . .                      ... ...

[Verse]

D|------------------------------------------------------------------------------------| 
A|------------------------------------------------------------------------------------| 
F|------------------------------------------------------------------------------------| 
C|---------7---5-----------8---7-----------10---7-------------------------------------| 
G|---------------------------------------------------0h1p0h1p0h1p0--3p0h3p0h3p0h3p0---| 
C|-0-0-0-0---0---0-0-0-0-0---0---0-0-0-0-0----0---0-----------------------------------| 
pm . . . .   .   . . . . .   .   . . . . .    .   .                                             

D|-----------------------------------------------------------------------|      
A|-----------------------------------------------------------------------|      
F|-----------------------------------------------------------------------|      
C|---------8/7---------10/7---------5/7----------------------------------|      
G|---------6/5---------8 /5---------3/5-0h1p0h1p0h1p0--3p0h3p0h3p0h3p0---|      
C|-0-0-0-0-----0-0-0-0------0-0-0-0--------------------------------------|              
pm . . . .     . . . .      . . . .    

[Pre-Chorus]

D|--------------------------------------------------------------------------------------|
A|--------------------------------------------------------------------------------------|
F|--------------------------------------------------------------------------------------|
C|--------------------------------------------------------------------------8--8--8--8--|
G|--8-------8---------------7-------7-------------8-------8-----------------8--8--8--8--|
C|----0-0-0---0-0-0-000-000---0-0-0---0-0-0-0-0-0---0-0-0---0-0-0-000-000---8--8--8--8--|
pm    . . .   . . . ... ...   . . .   . . . . . .   . . .   . . . ... ...

[Chorus]

D|-----------------------------------------------------------------------------------------------------------|
A|-----------------------------------------------------------------------------------------------------------|
F|-----------------------------------------------------------------------------------------------------------|
C|-7--0-0-0--7--0-0-0----------5--0-0-0--5--0-0-0---------7--0-0-0--7--0=0-0------------------------------0~-|
G|-7--0-0-0--7--0-0-0----------5--0-0-0--5--0-0-0---------7--0-0-0--7--0-0-0------------------------------0~-|
C|-7--0-0-0--7--0-0-0-000-000--5--0-0-0--5--0-0-0--0-0-0--7--0-0-0--7--0-0-0--000-000--8--7--5--7--5--3---0~-|
pm                     ... ...                      . . .                      ... ...|THRASH THESE NOTES|

D|----------------------------------------------------------------------------------------------------------|
A|----------------------------------------------------------------------------------------------------------|
F|----------------------------------------------------------------------------------------------------------|
C|--7--0-0-0--7--0-0-0----------5--0-0-0--5--0-0-0-------7--0-0-0--7--0=0-0-----------8--7--5--7--5--3---0~-|
G|--7--0-0-0--7--0-0-0----------5--0-0-0--5--0-0-0-------7--0-0-0--7--0-0-0-----------8--7--5--7--5--3---0~-|
C|--7--0-0-0--7--0-0-0-000-000--5--0-0-0--5--0-0-0--0-0--7--0-0-0--7--0-0-0--000-000--8--7--5--7--5--3---0~-|
pm                     ... ...                      . .                      ... ...

not figured out the solo yet

but rythm is...

D|------------------------------------------------------------------------------------| 
A|------------------------------------------------------------------------------------| 
F|------------------------------------------------------------------------------------| 
C|---------7---5-----------8---7-----------10---7-------------------------------------| 
G|---------------------------------------------------0h1p0h1p0h1p0--3p0h3p0h3p0h3p0---| 
C|-0-0-0-0---0---0-0-0-0-0---0---0-0-0-0-0----0---0-----------------------------------|         
pm . . . .   .   . . . . .   .   . . . . .    .   .                                             

D|----------------------------------------------------------------|             
A|----------------------------------------------------------------|             
F|----------------------------------------------------------------|X2
C|-7---7---5---3---8---7---5-7-5--0--0-0--------------------------|             
G|-7------------------------------0--0-0--2--2-2--3--3-3--5--5-5--|             
C|-7-7---0---0---0---0---0--------0--0-0--2--2-2--3--3-3--5--5-5--|             
pm   .   .   .   .   .   . . . .

D|-----------------------------------------------------------------|            
A|-----------------------------------------------------------------|            
F|-----------------------------------------------------------------|X2
C|-7-0-7p0-5p0-3p0-8p0-7p0-5h7p5---0--0-0--------------------------|            
G|-7-------------------------------0--0-0--2--2-2--3--3-3--5--5-5--|            
C|-7-------------------------------0--0-0--2--2-2--3--3-3--5--5-5--|            
pm

Breakdown

D|---------------------------------------------------------------------------------|
A|----------------------10-8~---------------------10-11~---------------------------|
F|---------------------------------------------------------------------------------|
C|--8--0--8-0~--8-0--/8-------8--0--8-0~--8-0--/8--------8--0--8-0~---------8-0--/8|
G|--8--0--8-0~--8-0-----------8--0--8-0~--8-0------------8--0--8-0~---------8-0----|
C|--8--0--8-0~--8-0-----------8--0--8-0~--8-0------------8--0--8-0~-0-0-0-0-8-0----|
pm  .     .     .             .     .     .              .     .    . . . . .      |

-----------------------------------------|
-10-<8>----------------------------10-11-|
-----------------------------------------|
--------8--0--8-0~---------8-0--/8-------|
--------8--0--8-0~---------8-0-----------|
--------8--0--8-0~-0-0-0-0-8-0-----------|
        .     .    . . . . .

Then

D|----------------------------------------------------------------------------------------------------|
A|----------------------------------------------------------------------------------------------------|
F|----------------------------------------------------------------------------------------------------|
C|----------------------------------------------------------------------------------------------------|
G|--8-------8---------------7-------7---------------8-------8---------------7h8-7h8~-7h8-7h8~-8-7-----|
C|----0-0-0---0-0-0-000-000---0-0-0---0-0-0-7-8-7-----0-0-0---0-0-0-000-000-----------------------8-5-|
pm    . . .   . . . ... ...   . . .   . . . ... ...   . . .   . . . ... ...

[Chorus]

D|-----------------------------------------------------------------------------------------------------------|
A|-----------------------------------------------------------------------------------------------------------|
F|-----------------------------------------------------------------------------------------------------------|
C|--7--0-0-0--7--0-0-0----------5--0-0-0--5--0-0-0---------7--0-0-0--7--0=0-0-----------------------------0~-|
G|--7--0-0-0--7--0-0-0----------5--0-0-0--5--0-0-0---------7--0-0-0--7--0-0-0-----------------------------0~-|
C|--7--0-0-0--7--0-0-0-000-000--5--0-0-0--5--0-0-0--0-0-0--7--0-0-0--7--0-0-0--000-000-8--7--5--7--5--3---0~-|
pm                     ... ...                      . . .                     ... ...|THRASH THESE NOTES|

D|-----------------------------------------------------------------------------------------------------------|
A|-----------------------------------------------------------------------------------------------------------|
F|-----------------------------------------------------------------------------------------------------------|
C|--7--0-0-0--7--0-0-0----------5--0-0-0--5--0-0-0---------7--0-0-0--7--0=0-0--------------------------------|
G|--7--0-0-0--7--0-0-0----------5--0-0-0--5--0-0-0---------7--0-0-0--7--0-0-0--------------------------------|
C|--7--0-0-0--7--0-0-0-000-000--5--0-0-0--5--0-0-0--0-0-0--7--0-0-0--7--0-0-0--000-000----8--7--5--7--5--3---|
pm                     ... ...                      . . .                      ... ...  |THRASH THESE NOTES|

D|----------------------|
A|----------------------|
F|----------------------|
C|----------------------|
G|----------------------|
C|---10--8--7--8--7--5--|
pm |THRASH THESE NOTES |

D|--------------------------------------------------------------------------|
A|--------------------------------------------------------------------------|   
F|--------------------------------------------------------------------------|   
C|---------7---5-----------8---7-----------10---7---------------------------|   
G|--------------------------------------------------------------------------|   
C|-0-0-0-0---0---0-0-0-0-0---0---0-0-0-0-0----0---0--7-8-7-8--10-12-10-8-0--|   
pm . . . .   .   . . . . .   .   . . . . .    .   .  . . . .  .  .  .  .



************************************

| b  Bend
| h  Hammer-on
| ~  Vibrato
| p  Pull-off
| /  Slide up
| >  Accented note

************************************

            
            
Suggest correction
Creating personal tab
Creating personal tab
You can edit any tab online and save it as your Personal.

You can edit, replace or remove any tab part or add personal notes – all changes will be seen only by you.

Personal tabs can be accessed anytime from any device, even offline.
Learn more »
comments
print report bad tab
12 comments total. Showing first comments.
+4 reply
Jax0r 31 Oct 03, 2006 04:36 AM

holy shit this tab is fukin awesome
5 stars!
2 thumbs (and a penis) up!
>_

0 reply
farmer john 10 Dec 12, 2006 02:46 PM

hellz yeah man this deserves to go in a book!
5 stars!

0 reply
shreden_g-tar 10 Apr 09, 2007 04:12 AM

sweet ass tab dude!

guest
You may want to rate the tab now too:
select rating
Wanna post a correction for this tab? Suggest correction