Oops, an error
Loading. Please wait.

Say Goodnight solo tab

version 2
38,859 views 9 this week
6 commentsread comments
1 2 3 4 5
x 15
add to favorites
×
Save as Personal and add changes to this tab that will be seen only by you. Learn more ›
×
You can save this tab as Personal to edit and correct it or add notes. All changes will be seen only by you. Learn more »
launch autoscroll
font size
0
reset
how to read this tab
guitar tuner
backing track
0:00
0:00
edit
Autoscroll
slow
fast
+/-
esc
set tempo
stop
Difficulty
intermediate
Bullet for my Valentine
Say Goodnight
Scream Aim Fire (2008)
intro solo and second solo tab
tuning DGCFAD (1 step down)
hope this is gd tabbed all by ear, comments appreciated. this is how it was played live, 
the solo switching between Matt and Padge

intro solo - Matt

------------------------------------------------------------------------------------------------|
------------------------------------------------------------------------------------------------|
---------------------------7--------------------------------------------------------------------|
------/9~~-7-9-10-9-7-----------------7------------------------------------9-10-7~-9-----7------|
----------------------10-9---10~-9-10---10-9-10-9-5-5/7~-5-7-9-7-9-10-9-10-----------10~---9----|
------------------------------------------------------------------------------------------------|

----15p14------------15p14-----------15p14--14-17b(19)-15-14-15-14h17p15p14---------------------|
---------15---------------15--------------15-------------------------------15-------------------|
-----------14---------------14------------------------------------------------------------------|
--------------17~~------------14~~--------------------------------------------------------------|
------------------------------------------------------------------------------------------------|
------------------------------------------------------------------------------------------------|

----15p14------------15p14-----------15p14--14-17b(19)-15-14-15-17-15-14-14h15p14------|
---------15---------------15--------------15-------------------------------------17~~--|
-----------14---------------14---------------------------------------------------------|
-------------17~~-------------14~~-----------------------------------------------------|
---------------------------------------------------------------------------------------|
---------------------------------------------------------------------------------------|

second solo - Padge - intro with natural harmonics

---(5)------------------------------------------------------------------/12-17-12-15-12---------|
-----(5)-(7)~----15b(17)(15)(17)--17-19-20-15h17-15h17~~--15b(16)-----------------------15------|
-------(5)------------------------------------------------14b(15)-12~~--------------------------|
------------------------------------------------------------------------------------------------|
------------------------------------------------------------------------------------------------|
------------------------------------------------------------------------------------------------|

---12-17-12-15-12----12h17p15---------------------------------12h14h15p14---15p14h15-17p15h17---|
------------------15----------------------------------12h14h15----------------------------------|
----------------------------------------------12h14h15------------------------------------------|
--------------------------------------12h14h15--------------------------------------------------|
------------------------------12h14h15----------------------------------------------------------|
------------------------------------------------------------------------------------------------|

----14-15-17-15-17-19-17-19-20-19-20-22-20-22-22b(24)~~~~---20p19--19---------------------------|
-----------------------------------------------------------------20--20-19-17~~-----------------|
------------------------------------------------------------------------------------------------|
------------------------------------------------------------------------------------------------|
------------------------------------------------------------------------------------------------|
------------------------------------------------------------------------------------------------|

            
            
Suggest correction
Creating personal tab
Creating personal tab
You can edit any tab online and save it as your Personal.

You can edit, replace or remove any tab part or add personal notes – all changes will be seen only by you.

Personal tabs can be accessed anytime from any device, even offline.
Learn more »
comments
print report bad tab
6 comments total. Showing first comments.
+1 reply
YoungLink 10 Apr 05, 2008 07:53 PM

This song is AWESOME!!!!!!!!! Im glad i can now play it!!! You should tab the whole song!!!!!! Thanks for the tab peace out!!!

-1 reply
DreadEnds 30 Oct 29, 2008 03:52 AM

excellent tab dude

0 reply
AsILayDying123 10 Jun 08, 2009 07:36 AM

wat do th () stand for r they suggestions

guest
Wanna post a correction for this tab? Suggest correction