Oops, an error
Loading. Please wait.

Scream Aim Fire Bass Tab

version 2
version 2
30,161 views 9 this week
2 commentsread comments
1 2 3 4 5
x 4
add to favorites
launch autoscroll
font size
0
reset
guitar tuner
Autoscroll
slow
fast
+/-
esc
set tempo
stop
Help us to improve Ultimate-Guitar.com Take our survey!
×
Author
Difficulty
Tuning
novice
D A D G B E
SCREAM AIM FIRE
Bass
Drop D


tabbed by Mr. Dr. Megna
mrdrmegna@aim.com

this is my first bass tabs but it pretty good

intro
G|------------------------------------------|
D|------------------------------------------|
A|-----------------1-1-1-1---------3-3-3-3--| x2
D|-0-0-0-0-0-0-0-0---------3-3-3-3----------|

verse
G|------------------------------------------|
D|------------------------------------------|
A|-------------------------3-3-3-3-0--------| x2
D|-0-0-0-0-0-0-0-0-3-3-3-3------------------|

Pre chorus
G|------------------------------------------|
D|------------------------------------------|
A|-------------3--------------3-------------| x2
D|-0---0-0--3-----0---0-0--3----------------|

chorus
G|------------------------------------------|
D|------------------------------------------|
A|-----------------1-1-1-1---------3-3-3-3--| x2
D|-0-0-0-0-0-0-0-0---------3-3-3-3----------|

verse
G|------------------------------------------|
D|------------------------------------------|
A|-------------------------3-3-3-3-0--------| x2
D|-0-0-0-0-0-0-0-0-3-3-3-3------------------|

Pre chorus
G|------------------------------------------|
D|------------------------------------------|
A|-------------3--------------3-------------| x2
D|-0---0-0--3-----0---0-0--3----------------|

chorus
G|------------------------------------------|
D|------------------------------------------|
A|-----------------1-1-1-1---------3-3-3-3--| x2
D|-0-0-0-0-0-0-0-0---------3-3-3-3----------|

Bridge1
G|--------------------------------------------|
D|--------------------------------------------|
A|--------------------------------------------|
D|-0-0-0--0-0--0-0--0-0--0-0--0-0--0-0--0-0---|

2
G|--------------------------------------------|
D|--------------------------------------------|
A|--------------------------------------------|
D|-0-0--0-0--0-0--0-0--0-0--0-0--0-0--0-0-3-3-|
3
G|--------------------------------------------|
D|--------------------------------------------|
A|--------------------------------------------|
D|---0-0--0-0--0-0--0-0--0-0--0-0--0-0--0-0---|

4
G|------------------------------------------------|
D|------------------------------------------------|
A|--------------------------------------------1-0-|
D|-0-0--0-0--0-0--0-0--0-0--0-0--0-0--0-0-3-3-----|

verse
G|------------------------------------------|-----Guitar solo-----|
D|------------------------------------------|
A|-------------------------3-3-3-3-0--------| x2
D|-0-0-0-0-0-0-0-0-3-3-3-3------------------|

Pre chorus
G|------------------------------------------|
D|------------------------------------------|
A|-------------3--------------3-------------| x2
D|-0---0-0--3-----0---0-0--3----------------|

chorus
G|------------------------------------------|
D|------------------------------------------|
A|-----------------1-1-1-1---------3-3-3-3--| x2
D|-0-0-0-0-0-0-0-0---------3-3-3-3----------|

Outro1
G|--------------------------------------------|
D|--------------------------------------------|
A|--------------------------------------------|
D|-0-0-0--0-0--0-0--0-0--0-0--0-0--0-0--0-0---|

2
G|--------------------------------------------|
D|--------------------------------------------|
A|--------------------------------------------|
D|-0-0--0-0--0-0--0-0--0-0--0-0--0-0--0-0-3-3-|

3
G|------------------------------------------|
D|------------------------------------------|
A|------------------------------------------|
D|-0-0--0-0--0-0--0-0--0-0--0-0--0-0--0-0---|

4
G|------------------------------------------------|
D|------------------------------------------------|
A|--------------------------------------------1-0-|
D|-0-0--0-0--0-0--0-0--0-0--0-0--0-0--0-0-3-3-----|
Suggest correction
comments
print report bad tab
2 comments total.
0 reply
Craig-Bass1995 177 Oct 27, 2009 09:39 AM

Drop-C, Like Every Other BFMV Song On The Scream Aim Fire Album!

0 reply
phasesevenfold 213 Mar 28, 2011 11:18 PM

What is the point of dropping to C when you can have D as an open note and make the song just as easy? I mean if you're taking this from being tabbed by ear, there is no difference between tuning drop D or C. If you're trying to play the full album than sure, drop C all the way. It's not that hard to transpose this to C.

But still you did miss half the prechorus and the final bit of the outro, and if you're trying to account for every note in each riff then you did an abysmal job on the intro, chorus, and verse... Otherwise it's dead on correct.

guest
You may want to rate the tab now too:
select rating
Wanna post a correction for this tab? Suggest correction