Oops, an error
Loading. Please wait.

Scream Aim Fire Bass

version 2
version 2
27,457 views 15 this week
9 commentsread comments
1 2 3 4 5
x 10
add to favorites
launch autoscroll
font size
0
reset
guitar tuner
backing track
0:00
0:00
×
Best way to learn
"Scream Aim Fire"
Autoscroll
slow
fast
+/-
esc
set tempo
stop
Author
Tuning
C G C F
Here it is "Scream Aim_and Fire"!
Plz Rate... ~*|  / * |  *~
              |-\  | |-
              |  \ | |_

=Intro=
F--------------------|
C--------------------|  2x
G--------333333---5~-|
C-222222--------5~---|

F----|
C----|
G----|
C-2~-|

=Couplet=
F-----------------------|
C-----------------------|  2x
G-----------------5~-2~-|
C-22222222-555555-------|

=Pre-Chorus=
F---------------------------|
C---------------------------|
G-----------5-------------5-|
C-2---22--5-----2---22--5---|

F----------------------------|
C----------------------------| (if u think this wrong u can play the 7 as a
G-77777777---5---7777777---5-|  2 on the c-string, but if u listen u can hear
C----------5-------------5---|  the 7's)

=Chorus=
F--------------------|
C--------------------|  2x
G--------333333---5~-|
C-222222--------5~---|

F----|
C----|
G----|
C-2~-|

=Couplet=
F-----------------------|
C-----------------------|  2x
G-----------------5~-2~-|
C-22222222-555555-------|

=Pre-Chorus=
F---------------------------|
C---------------------------|
G-----------5-------------5-|
C-2---22--5-----2---22--5---|

F----------------------------|
C----------------------------|
G-77777777---5---7777777---5-|
C----------5-------------5---|

=Chorus=
F--------------------|
C--------------------|  2x
G--------333333---5~-|
C-222222--------5~---|

F----|
C----|
G----|
C-2~-|

=Bridge=
F----------------------------|
C----------------------------|
G----------------------------|
C-22-22-22-22-22-22-22-22-22-|

F--------------------------------|
C--------------------------------|
G--------------------------------|
C-22-22-22-22-22-22-22-22-22--5-5|

F------------------------------|
C------------------------------|
G------------------------------|
C-22-22-22-22-22-22-22-22-22-2-|

F-------------------------------------|
C-------------------------------------|
G---------------------------------3-2-|
C-22-22-22-22-22-22-22-22-22--5-5-----|

=Solo=
F-----------------------|
C-----------------------|  2x
G-----------------5~-2~-|
C-22222222-555555-------|

=Pre-Chorus=
F---------------------------|
C---------------------------|
G-----------5-------------5-|
C-2---22--5-----2---22--5---|

F----------------------------|
C----------------------------|
G-77777777---5---7777777---5-|
C----------5-------------5---|

=Chorus=
F--------------------|
C--------------------|  2x
G--------333333---5~-|
C-222222--------5~---|

F----|
C----|
G----|
C-2~-|

=Outro=
F----------------------------|
C----------------------------|
G----------------------------|
C-22-22-22-22-22-22-22-22-22-|

F--------------------------------|
C--------------------------------|
G--------------------------------|
C-22-22-22-22-22-22-22-22-22--5-5|

F------------------------------|
C------------------------------|
G------------------------------|
C-22-22-22-22-22-22-22-22-22-2-|

F-------------------------------------|
C-------------------------------------|
G---------------------------------3-2-|
C-22-22-22-22-22-22-22-22-22--5-5-----|

F---|
C---|
G---|
C-2-|
Suggest correction
comments
print report bad tab
9 comments total. Showing first comments.
-2 reply
rachelwarner 10 Apr 26, 2008 11:54 AM

How do you tune the first string to F?

+3 reply
MetalGorilla 10 May 12, 2008 06:45 PM

................................................rachel warner..................................................................................................................
.......................do u even own a bass?

+2 reply
MetalGorilla 10 May 12, 2008 06:58 PM

uhh i just realized i sound like a mean dick haha

just go to the forums page and hit guitar and bass basics and ask all the dudes there

guest
You may want to rate the tab now too:
select rating
Wanna post a correction for this tab? Suggest correction