Oops, an error
Loading. Please wait.
We have an official Scream Aim Fire tab made by UG professional guitarists. Check out the tab »
×
6,224 views 6 this week
1 commentread comment
1 2 3 4 5
x 5
add to favorites
launch autoscroll
font size
0
reset
guitar tuner
backing track
0:00
0:00
×
Best way to learn
"Scream Aim Fire"
Autoscroll
slow
fast
+/-
esc
set tempo
stop
Author
Difficulty
Tuning
  follow
novice
D G C F
Intro:
F|------------------------------------------------------------|x2|-------|
C|------------------------------------------------------------|x2|-------|
G|------------------------------------3333333333333333------5~|x2|-------|
D|-00000000000000000000000000000000---------------------3~----|x2|--0~---|


Verse:
F|------------------------------------------------------------|x2--|
C|------------------------------------------------------------|x2--|
G|-----------------------------------------------------5~--2~-|x2--|
D|-00000000000000000000000000000000---3333333333333333--------|x2--|


Pre-Chorus:
F|-------------|x2|---------------------------------------------------------------|
C|-------------|x2|---------------------------------------------------------------|
G|-----------5-|x2|----7777777777777777777777---5----7777777777777777777777---5---|
D|-0--0-0--3---|x2|---------------------------3-----------------------------3-----|


Chorus:
F|-------------------------------------------------------------|x2|-------|
C|-------------------------------------------------------------|x2|-------|
G|------------------------------------3333333333333333------5~-|x2|-------|
D|-00000000000000000000000000000000---------------------3~-----|x2|--0~---|

Verse:
F|------------------------------------------------------------|x2--|
C|------------------------------------------------------------|x2--|
G|-----------------------------------------------------5~--2~-|x2--|
D|-00000000000000000000000000000000---3333333333333333--------|x2--|

Pre-Chorus:
F|-------------|x2|---------------------------------------------------------------|
C|-------------|x2|---------------------------------------------------------------|
G|-----------5-|x2|----7777777777777777777777---5----7777777777777777777777---5---|
D|-0--0-0--3---|x2|---------------------------3-----------------------------3-----|


Chorus:
F|-------------------------------------------------------------|x2|-------|
C|-------------------------------------------------------------|x2|-------|
G|------------------------------------3333333333333333------5~-|x2|-------|
D|-00000000000000000000000000000000---------------------3~-----|x2|--0~---|

Bridge:
F|-----------------------------------------------------------------|
C|-----------------------------------------------------------------|
G|-----------------------------------------------------------------|
D|-000-00-00-00-00-00-00-00-00---00-00-00-00-00-00-00-00-00--3~-3~-|

F|------------------------------------------------------------------------|
C|------------------------------------------------------------------------|
G|------------------------------------------------------------------3~-2~-|
D|-00-00-00-00-00-00-00-00-00-----00-00-00-00-00-00-00-00-00--3~-3~-------|

Solo:
F|------------------------------------------------------------|x2--|
C|------------------------------------------------------------|x2--|
G|-----------------------------------------------------5~--2~-|x2--|
D|-00000000000000000000000000000000---3333333333333333--------|x2--|

Pre-Chorus:
F|-------------|x2|---------------------------------------------------------------|
C|-------------|x2|---------------------------------------------------------------|
G|-----------5-|x2|----7777777777777777777777---5----7777777777777777777777---5---|
D|-0--0-0--3---|x2|---------------------------3-----------------------------3-----|


Chorus:
F|-------------------------------------------------------------|x2|-------|
C|-------------------------------------------------------------|x2|-------|
G|------------------------------------3333333333333333------5~-|x2|-------|
D|-00000000000000000000000000000000---------------------3~-----|x2|--0~---|

Outro:
F|-------------------------------------------------------------------|
C|-------------------------------------------------------------------|
G|-------------------------------------------------------------------|
D|-12\000-00-00-00-00-00-00-00-00--00-00-00-00-00-00-00-00-00--3--3--|

F|-------------------------------------------------------------------------------|
C|-------------------------------------------------------------------------------|
G|-----------------------------------------------------------------3~-2~---------|
D|-00-00-00-00-00-00-00-00-00-0~-00-00-00-00-00-00-00-00-00--3~-3~-------0~---0--|

Palm mutes during the bridge and the outro.
Enjoy. :D
Suggest correction
comments
print report bad tab
1 comment total.
0 reply
aruffolo12 88 Mar 07, 2013 05:44 PM

god bless

guest
You may want to rate the tab now too:
select rating
Wanna post a correction for this tab? Suggest correction