Oops, an error
Loading. Please wait.

Scream Aim Fire Bass Tab

version 6
version 6
526 views 1 this week
no commentswrite comment
1 2 3 4 5
3 more votes to show rating
add to favorites
launch autoscroll
font size
0
reset
guitar tuner
Autoscroll
slow
fast
+/-
esc
set tempo
stop
Help us to improve Ultimate-Guitar.com Take our survey!
×
Author
Tuning
C G C F A D
Intro
F|----------------------------------|---------------------------------|
C|o---------------------------------|---------------------------------|
G|o---------------------------------|---------------------4-3---------|
C|--2-2-2-4-2-2-2-2-2-2-2-4-5-4-2-4-|-2-2-2-4-2-2-2-2-2-2-------------|

F|---------------------------------|----------------------------------|
C|---------------------------------|---------------------------------o|
G|-3-3-3-3-3-3-3-3-3-3-3-3-3-3-3-3-|-----------------5-5-5-5-5-5-5-5-o|
C|---------------------------------|-5-5-5-5-5-5-5-5------------------|

F|---------------------------------|---------------------------------|
C|---------------------------------|---------------------------------|
G|---------------------------------|---------------------------------|
C|-2-------------------------------|-(2)-----------------------------|

Verse 0:25
F|---------------------------------|---------------------------------|
C|---------------------------------|---------------------------------|
G|---------------------------------|---------------------------------|
C|-2-2-2-2-2-2-2-4-2-2-2-2-2-2-2-4-|-2-2-2-2-2-2-2-4-2-2-2-2-2-2-2-2-|

F|---------------------------------|---------------------------------|
C|---------------------------------|---------------------------------|
G|---------------------------------|-5-5-5-5-5-5-5-5-2-2-2-2-2-2-2-2-|
C|-5-5-5-5-5-5-5-7-5-5-5-5-5-5-5-5-|---------------------------------|

F|---------------------------------|---------------------------------|
C|---------------------------------|---------------------------------|
G|---------------------------------|---------------------------------|
C|-2-2-2-2-2-2-2-4-2-2-2-2-2-2-2-4-|-2-2-2-2-2-2-2-4-2-2-2-2-2-2-2-2-|

F|---------------------------------|---------------------------------|
C|---------------------------------|---------------------------------|
G|---------------------------------|-5-5-5-5-5-5-5-5-2-2-2-2---2-----|
C|-5-5-5-5-5-5-5-7-5-5-5-5-5-5-5-5-|---------------------------------|

Pre Chorus 0:44
F|----------------------------------|----------------------------------|
C|o---------------------------------|---------------------------------o|
G|o---------------------------------|---------------------------5-----o|
C|--2---------------------------2-2-|------------------5---------------|

F|---------------------------------|---------------------------------|
C|---------------------------------|---------------------------------|
G|-----7-7-7-7-7-7-7-7-7-7-7-7-----|-----7-7-7-7-7------------5------|
C|-2---------------------------2-2-|-----------------5---------------|

F|---------------------------------|---------------------------------|
C|---------------------------------|---------------------------------|
G|-----7-7-7-7-7-7-7-7-7-7-7-7-----|-----7-7-7-7--------------5------|
C|-2---------------------------2-2-|-------------7---5---------------|

Chorus 1:04
F|----------------------------------|---------------------------------|
C|o---------------------------------|---------------------------------|
G|o---------------------------------|---------------------------------|
C|--2-2-2-2-2-2-2-2-2-2-2-2-2-2-2-2-|-2-2-2-2-2-2-2-2-2-2-2-2-2-2-2-2-|

F|---------------------------------|----------------------------------|
C|---------------------------------|---------------------------------o|
G|-3-3-3-3-3-3-3-3-3-3-3-3-3-3-3-3-|-----------------5-5-5-5-5-5-5-5-o|
C|---------------------------------|-5-5-5-5-5-5-5-5------------------|

F|---------------------------------|---------------------------------|
C|---------------------------------|---------------------------------|
G|---------------------------------|---------------------------------|
C|-2-------------------------------|-(2)-----------------------------|

Verse 1:28
F|---------------------------------|---------------------------------|
C|---------------------------------|---------------------2-5-4-2-4---|
G|---------------------------------|---------------------------------|
C|-2-2-2-2-2-2-2-4-2-2-2-2-2-2-2-4-|-2-2-2-2-2-2-2-4-2---------------|

F|---------------------------------|---------------------------------|
C|---------------------------------|-------------------------4---5---|
G|---------------------------------|-5-5-5-5-5-5-5-5-2-2-2-2---------|
C|-5-5-5-5-5-5-5-7-5-5-5-5-5-5-5-5-|---------------------------------|

F|---------------------------------|---------------------------------|
C|---------------------------------|-----------------------5-4-2-4---|
G|---------------------------------|---------------------------------|
C|-2-2-2-2-2-2-2-4-2-2-2-2-2-2-2-4-|-2-2-2-2-2-2-2-4-2-2-------------|

F|---------------------------------|---------------------------------|
C|---------------------------------|---------------------------------|
G|---------------------------------|-5-5-5-5-5-5-5-5-2-2-2-2---2-----|
C|-5-5-5-5-5-5-5-7-5-5-5-5-5-5-5-5-|---------------------------------|

Pre Chorus 1:48
F|----------------------------------|----------------------------------|
C|o---------------------------------|---------------------------------o|
G|o---------------------------------|---------------------------5-----o|
C|--2---------------------------2-2-|------------------5---------------|

F|---------------------------------|---------------------------------|
C|---------------------------------|---------------------------------|
G|-----7-7-7-7-7-7-7-7-7-7-7-7-----|-----7-7-7-7-7------------5------|
C|-2---------------------------2-2-|-----------------5---------------|

F|---------------------------------|---------------------------------|
C|---------------------------------|---------------------------------|
G|-----7-7-7-7-7-7-7-7-7-7-7-7-----|-----7-7-7-7--------------5------|
C|-2---------------------------2-2-|-------------7---5---------------|

Chorus 2:07
F|---------------------------------|---------------------------------|
C|---------------------------------|---------------------------------|
G|---------------------------------|---------------------------------|
C|-2-2-2-2-2-2-2-2-2-2-2-2-2-2-2-2-|-2-2-2-2-2-2-2-2-2-2-2-2-2-2-2-2-|

F|---------------------------------|---------------------------------|
C|---------------------------------|---------------------------------|
G|-3-3-3-3-3-3-3-3-3-3-3-3-3-3-3-3-|-----------------5-5-5-5-5-5-5-5-|
C|---------------------------------|-5-5-5-5-5-5-5-5-----------------|

F|---------------------------------|---------------------------------|
C|---------------------------------|---------------------------------|
G|---------------------------------|---------------------------------|
C|-2-2-2-2-2-2-2-2-2-2-2-2-2-2-2-2-|-2-2-2-2-2-2-2-2-2-2-2-2-2-2-2-2-|

F|---------------------------------|---------------------------------|
C|---------------------------------|---------------------------------|
G|-3-3-3-3-3-3-3-3-3-3-3-3-3-3-3-3-|-----------------5---------------|
C|---------------------------------|-5-------------------------------|

F|---------------------------------|---------------------------------|
C|---------------------------------|---------------------------------|
G|---------------------------------|---------------------------------|
C|-2-------------------------------|-(2)-----------------------------|

Breakdown 2:31
F|---------------------------------|---------------------------------|
C|---------------------------------|---------------------------------|
G|---------------------------------|---------------------------------|
C|-2-2-2---2-2---2-2---2-2---2-2---|-2-2---2-2---2-2---2-2---------2-|

F|---------------------------------|---------------------------------|
C|---------------------------------|---------------------------------|
G|---------------------------------|---------------------------------|
C|-2--2-2---2-2---2-2---2-2---2-2--|-2-2---2-2---2-2---5---5-----2-2-|

F|---------------------------------|---------------------------------|
C|---------------------------------|---------------------------------|
G|---------------------------------|---------------------------------|
C|-2-2---2-2---2-2---2-2---2-2---2-|-2---2-2---2-2---2---------2-2---|

F|---------------------------------|---------------------------------|
C|---------------------------------|---------------------------------|
G|---------------------------------|-------------------------3---2---|
C|-2-2---2-2---2-2---2-2---2-2---2-|-2---2-2---2-2---5---5-----------|

Solo 2:54
F|----------------------------------|---------------------------------|
C|o---------------------------------|---------------------------------|
G|o---------------------------------|---------------------------------|
C|--2-2-2-2-2-2-2-2-2-2-2-2-2-2-2-2-|-2-2-2-2-2-2-2-2-2-2-2-2-2-2-2-2-|

F|---------------------------------|----------------------------------|
C|---------------------------------|---------------------------------o|
G|---------------------------------|-4-5-5-5-5-5-5-5-2-2-2-2-2-2-2-2-o|
C|-5-5-5-5-5-5-5-5-5-5-5-5-5-5-5-5-|----------------------------------|

Pre Chorus 3:12
F|----------------------------------|----------------------------------|
C|o---------------------------------|---------------------------------o|
G|o---------------------------------|---------------------------5-----o|
C|--2---------------------------2-2-|------------------5---------------|

F|---------------------------------|---------------------------------|
C|---------------------------------|---------------------------------|
G|-----7-7-7-7-7-7-7-7-7-7-7-7-----|-----7-7-7-7-7------------5------|
C|-2---------------------------2-2-|-----------------5---------------|

F|---------------------------------|---------------------------------|
C|---------------------------------|---------------------------------|
G|-----7-7-7-7-7-7-7-7-7-7-7-7-----|-----7-7-7-7--------------5------|
C|-2---------------------------2-2-|-------------7---5---------------|

Chorus 3:31
F|---------------------------------|---------------------------------|
C|---------------------------------|---------------------------------|
G|---------------------------------|---------------------------------|
C|-2-2-2-2-2-2-2-2-2-2-2-2-2-2-2-2-|-2-2-2-2-2-2-2-2-2-2-2-2-2-2-2-2-|

F|---------------------------------|---------------------------------|
C|---------------------------------|---------------------------------|
G|-3-3-3-3-3-3-3-3-3-3-3-3-3-3-3-3-|-----------------5-5-5-5-5-5-5-5-|
C|---------------------------------|-5-5-5-5-5-5-5-5-----------------|

F|---------------------------------|---------------------------------|
C|---------------------------------|---------------------------------|
G|---------------------------------|---------------------------------|
C|-2-2-2-2-2-2-2-2-2-2-2-2-2-2-2-2-|-2-2-2-2-2-2-2-2-2-2-2-2-2-2-2-2-|

F|---------------------------------|---------------------------------|
C|---------------------------------|---------------------------------|
G|-3-3-3-3-3-3-3-3-3-3-3-3-3-3-3-3-|-----------------5---------------|
C|---------------------------------|-5-------------------------------|

F|---------------------------------|---------------------------------|
C|---------------------------------|---------------------------------|
G|---------------------------------|---------------------------------|
C|-2-------------------------------|-(2)-----------------------------|

F|---------------------------------|---------------------------------|
C|---------------------------------|---------------------------------|
G|---------------------------------|-------------------------7\------|
C|-(2)-----------------------------|-(2)-----------------------------|

Outro 4:00
F|---------------------------------|---------------------------------|
C|---------------------------------|---------------------------------|
G|---------------------------------|---------------------------------|
C|-2-2-2---2-2---2-2---2-2---2-2---|-2-2---2-2---2-2---2-2---------2-|

F|---------------------------------|---------------------------------|
C|---------------------------------|---------------------------------|
G|---------------------------------|---------------------------------|
C|-2--2-2---2-2---2-2---2-2---2-2--|-2-2---2-2---2-2---5---5-----2-2-|

F|---------------------------------|---------------------------------|
C|---------------------------------|---------------------------------|
G|---------------------------------|---------------------------------|
C|-2-2---2-2---2-2---2-2---2-2---2-|-2---2-2---2-2---2---------2-2---|

F|---------------------------------|---------------------------------|
C|---------------------------------|---------------------------------|
G|---------------------------------|-------------------------3---2---|
C|-2-2---2-2---2-2---2-2---2-2---2-|-2---2-2---2-2---5---5-----------|

F|---------------------------------|---------------------------------|
C|---------------------------------|---------------------------------|
G|---------------------------------|---------------------------------|
C|-2-2-2-2-2-2-2-2-2-2-2-2-2-2-2-2-|-2-2-2-2-2-2---------------------|
Tabbed by Dave Vucko
Suggest correction
Give kudos to tab author, rate the tab!
1 2 3 4 5
comments
print report bad tab
guest
You may want to rate the tab now too:
select rating
Wanna post a correction for this tab? Suggest correction