Oops, an error
Loading. Please wait.

Spit You Out Bass Tab

version 1
version 1

Whole song

Interactive

6,226 views 3 this week
6 commentsread comments
1 2 3 4 5
accurate
x 3
add to favorites
launch autoscroll
font size
0
reset
guitar tuner
Autoscroll
slow
fast
+/-
esc
set tempo
stop
Help us to improve Ultimate-Guitar.com Take our survey!
×
Contributor
Tuning
deadhand329 2,122
C G C F A D
Intro:
F|-------------------------------|
C|-------------------------------|
G|--------1~-----3~----1~--------|x4
C|--0~---------------------3--1--|

F|-----------------|
C|-----------------|
G|-----------------|
C|--0--0--0--000---|

Verse: Note (Guitar plays through and then the bass plays along)
F|---------------------------------------------------------------|
C|---------------------------------------------------------------|
G|-3-5--3-5--3-3--3-5--3-3h5-3h5--3-5--3-5--3-3--3-5--3-3h5-3h5--|
C|---------------------------------------------------------------|

Pre Chorus
F|--------------------------------------|
C|--------------------------------------|
G|--1-1-111-3-3-333-5-5--00000000000000-|x3
C|--------------------------------------|

F|----------------------|
C|----------------------|
G|--1-1-111-3-3-333-5~--|
C|----------------------|

Chorus:
F|---------------------------------------------------------------|
C|---------------------------------------------------------------|
G|-1-1-1-1-1-1-1-1-----------------3-3-3-3-3-3-3-3--1------------|
C|-----------------0-0-0-0-0-0-0-0--------------------xx-xx-3-1--|

F|---------------------------------------------------------------|
C|---------------------------------------------------------------|
G|-----------------1-1-1-1-1-1-1-1-3-3-3-3-3-3-3-3--1------------|
C|-0-0-0-0-0-0-0-0------------------------------------xx-xx-3-1--|

Repeat Verse
Repeat PreChorus
Repeat Chorus

Bridge:
F|--------------------------------------|
C|--------------------------------------|
G|--------------------------------------|
C|-000000000000000000000000000000000000-|

F|--------------------------------------|
C|--------------------------------------|
G|--------------------------------------|x2
C|--00----00-----00-----888888833331111-|

F|---------------------------------------------|
C|---------------------------------------------|
G|---------------------------------------------|x2
C|--00~-00~---00~---00~-00~--888888833331111---|

Bass Solo
F|--------------------------------------|
C|--------------------------------------|
G|--1-1-111-3-3-333-5-00000000000000----|x3
C|--------------------------------------|

F|----------------------|
C|----------------------|
G|--1-1-111-3-3-333-5~--|
C|----------------------|

Repeat PreChorus:
Repeat Verse As Outro

And Then
F|----------------------|
C|----------------------|
G|----------------------|
C|-000000000000000~-----|


comments
We did not receive enough feedback on this tab! Please rate:
print report bad tab
1 2 3 4 5
6 comments total. Showing first comments.
0 reply
T.B.K. 176 wrote on November 28 2006, 03:45 pm

mmm it seems like youre missing a chorus and second verse which is little bit different from 1st verse....and intro doesnt fit i thing

0 reply
T.B.K. 176 wrote on November 28 2006, 03:54 pm

sory i was wrong.....you are only missing chorus.....and maaan this tab is not advanced in difficulty.....

0 reply
deadhand329 2,122 wrote on November 11 2007, 03:25 pm

never realized that the chorus wasn't in there..i put it in...sorry man

I want to post or [tab]
guest
You may want to rate the tab now too:
select rating
Please do not post tabs as comments. Select "correction" instead!