Oops, an error
Loading. Please wait.

Spit You Out Bass Tab

version 2
version 2

Whole song

Interactive

783 views 1 this week
1 commentread comment
1 2 3 4 5
2 more votes to show rating
add to favorites
launch autoscroll
font size
0
reset
guitar tuner
Autoscroll
slow
fast
+/-
esc
set tempo
stop
Help us to improve Ultimate-Guitar.com Take our survey!
×
Author
Difficulty
Tuning
novice
C G C F A D
Artist:BFMV
Song:Spit you out
Album: The poison
  /=slide                   ENJOY!

    Intro
F|-------3-----5-----3----------|
C|-------3-----5-----3----------|
G|-5-----1-----3-----1---------5|
C|-0---------------------3--1--0| X4

   Verse
F|----------------------------------------------------------|
C|----------------------------------------------------------|
G|-2-2-5--2-5-2-5-2-2-5-2-5--2-5-2-2-5-2-5-2-2-5-2-5-2-2-2-5|
C|----------------------------------------------------------|

     Chorus
F|-------------------------------------------------------|
C|-------------------------------------------------------|
G|-1-111-3-3333-55------------1-111-3-3333-55------------|
C|-----------------0000000000-----------------0000000000-|


F|---------------------------------------------|
C|---------------------------------------------|
G|-111111111-1-------------333333333-3/1-------|
C|--------------000000000----------------3/1-0-|


F|----------------------------------------|
C|----------------------------------------|
G|-----------11111111-1-33333333-3/1------|
C|-0000000-0-------------------------3/1-0|

Verse x1
Chorus x1

F|--------------------------------|
C|--------------------------------|
G|--------------------------------|
C|-00-000-00-00-000--88888-33333-1|    x2


F|------------------------------------------|
C|------------------------------------------|
G|-------------------------11111------------|
C|-00-00---00---00--00------------33333-1-0-|   x2

       bass solo (live)
F|-------------------------------|
C|-------------------------------|
G|-1-111-1/3-333-3/5-5-----------|
C|---------------------000000000-|     x4

Chorus x1

F|-----------------------------------------|
C|-----------------------------------------|
G|-2-5-2-2/5--2-5-2-2/5-2-5-2-2/5-2-5-2-2/5|
C|-----------------------------------------|     x2


   outro
F|---------------|
C|---------------|
G|-5-555-5555555-|
C|-0-000-0000000-|
C|-0-000-0000000|
Suggest correction
Give kudos to tab author, rate the tab!
1 2 3 4 5
comments
print report bad tab
1 comment total.
0 reply
Bass Shredder27 73 Sep 23, 2009 02:37 PM

I ment to do on the outro soz

C

guest
You may want to rate the tab now too:
select rating
Wanna post a correction for this tab? Suggest correction