Oops, an error
Loading. Please wait.

Suffocating Under Words Of Sorrow Bass Tab

version 2
version 2
5,968 views 1 this week
5 commentsread comments
1 2 3 4 5
1 last vote to show rating
add to favorites
launch autoscroll
font size
0
reset
guitar tuner
Autoscroll
slow
fast
+/-
esc
set tempo
stop
Help us to improve Ultimate-Guitar.com Take our survey!
×
Author
Difficulty
Tuning
novice
C G C F A D
-------------------------------------------------------------------------------
  Suffocating Under Words of Sorrow (What Can I Do) - Bullet For My Valentine
-------------------------------------------------------------------------------

Tabbed By: killer_monkey

No credits to me, this is just the bass line that I ripped out from the "Suffocating 
Words Of Sorrow Guitar Pro Tab" that killer_money wrote. I think that these great tabs 
be available to the world without having to purchase Guitar Pro!

Tuning: Drop C (CGCF)

Intro x2
F|---------------------|
C|---------------------|
G|--00--0-0------------|
C|------------33335557-|

Pre verse
F|----------------------------------|
C|----------------------------------|
G|----------------------------------|
C|-77777777777777777777777733335557-|

F|----------------------------------|
C|----------------------------------|
G|----------------------------------|
C|-777777777777777777777777-------3-|

F|-------------------|
C|-------------------|
G|-------------------|
C|---33-3-3-3-3-5557-|

Verse 1 (the night has started here we go!)
F|----------------------------------|
C|----------------------------------|
G|----------------------------------|
C|-77777777777777777777777733335557-|

F|----------------------------------|
C|----------------------------------|
G|----------------------------------|
C|-777777777777777777777777-------7-|

F|----------------------------------|
C|----------------------------------|
G|----------------------------------|
C|-77777777777777777777777733335557-| x2

Last time, exit with 3 instead of 7

Chorus x2 (what can I do to make you see?)
F|----------------------------|
C|----------------------------|
G|----------------------------|
C|---33-3-3-3-3-5557-7--77--3-|

F|----------------------------|
C|----------------------------|
G|----------------------------|
C|---33-3-3-3-3-5555-5--55--3-|
Last time, exit with 7 instead of 3

Verse 2 (Her skin reflects behind the blur, I'm intoxicated)
F|----------------------------------|
C|----------------------------------|
G|----------------------------------|
C|-77777777777777777777777733335557-| x3

F|----------------------------------|
C|----------------------------------|
G|----------------------------------|
C|-777777777777777777777777-------3-|

Chorus x2 (what can I do to make you see?)
F|----------------------------|
C|----------------------------|
G|----------------------------|
C|---33-3-3-3-3-5557-7--77--3-|

F|----------------------------|
C|----------------------------|
G|----------------------------|
C|---33-3-3-3-3-5555-5--55--3-|
Last time, exit with 7 instead of 3

Guitar solo
F|--------------------------------------------|
C|--------------------------------------------|
G|--------------------------------------------|
C|-777777777777777777777777777101010101010103-|

F|------------------------------------|
C|------------------------------------|
G|------------------------------------|
C|-3333333333333333335555555555555577-|

Tempo is changed now, play much faster!
F|---------------------------------------------|
C|---------------------------------------------|
G|---------------------------------------------|
C|-777-777-777-777-777-777-777-777-777-777-777-|

F|-----------------------------------------------------------------|
C|-----------------------------------------------------------------|
G|-----------------------------------------------------------------|
C|-7710-101010-101010-101010-10103-333-333-333-333-333-333-333-335-|

F|----------------------------------|
C|----------------------------------|
G|----------------------------------|
C|-555-555-555-555-555-555-555-557~-|

Bridge (tempo is normal again)
F|-------------------------------------------------------------------|
C|-------------------------------------------------------------------|
G|-------------------------------------------------------------------|
C|--3----5----77----77---77---77---77---77---33---33---33---55---55--|

Guitar solo
F|--------------------------------------------|
C|--------------------------------------------|
G|--------------------------------------------|
C|-777777777777777777777777777101010101010103-|

F|-----------------------------------|
C|-----------------------------------|
G|-----------------------------------|
C|-333333333333333333555555555555557-|

F|------------------------------------------------------------------------|
C|------------------------------------------------------------------------|
G|------------------------------------------------------------------------|
C|-77777777777777777777777101010101010103-333333333333335-555555555555557-|

Verse 3 (Her skin reflects behind the blur, I'm intoxicated!)
F|----------------------------------|
C|----------------------------------|
G|----------------------------------|
C|-77--------------7777777733335557-|

F|----------------------------------|
C|----------------------------------|
G|----------------------------------|
C|-77777777777777777777777733335557-| x2

F|----------------------------------|
C|----------------------------------|
G|----------------------------------|
C|-777777777777777777777777-------3-|

Chorus x2 (what can I do to make you see?)
F|----------------------------|
C|----------------------------|
G|----------------------------|
C|---33-3-3-3-3-5557-7--77--3-|

F|----------------------------|
C|----------------------------|
G|----------------------------|
C|---33-3-3-3-3-5555-5--55--5-|

Outro
F|----------|
C|----------|
G|----------|
C|-5--55--7-|

F|----------------------------------|
C|----------------------------------|
G|----------------------------------|
C|-777777777777777777777777-------3-|

F|----------------------------------|
C|----------------------------------|
G|----------------------------------|
C|-777777777777777777777777------57-|


| /  slide up
| \  slide down
| h  hammer-on
| p  pull-off
| ~  vibrato
| +  harmonic
| x  Mute note
===============================================================================
Suggest correction
Give kudos to tab author, rate the tab!
1 2 3 4 5
comments
print report bad tab
5 comments total. Showing first comments.
0 reply
badhabit000 30 Mar 31, 2007 03:02 PM

yeo dead on

i tried to sumbit it by ear and i ogt it hella rite ass hole

0 reply
vikkoo 94 Sep 13, 2007 09:55 AM

yeah but you look like shit so :/

0 reply
Firewind Raging 150 Jun 10, 2008 07:11 AM

There's actually NOT a tempo change in this song... don't know where you got that idea :S

guest
You may want to rate the tab now too:
select rating
Wanna post a correction for this tab? Suggest correction