Oops, an error
Loading. Please wait.

Suffocating Under Words Of Sorrow Bass Tab

version 3
version 3
3,476 views 1 this week
no commentswrite comment
1 2 3 4 5
1 last vote to show rating
add to favorites
launch autoscroll
font size
0
reset
guitar tuner
Autoscroll
slow
fast
+/-
esc
set tempo
stop
Help us to improve Ultimate-Guitar.com Take our survey!
×
Author
Difficulty
Tuning
novice
C G C F A D
-------------------------------------------------------------------------------
	    SUFFOCATING UNDER WORDS OF SORROW - Bullet for my Valentine
-------------------------------------------------------------------------------

Tabbed By: Kergash
e-mail: h_bjerkg@hotmail.com


This is my first tab ever, if you want to correct something you think is wrong, either 
me or use the comment-section!
Other than that, this is how I play the song.
I'll list up the riffs first, then I'll list up what order they're played in at the end.

The tuning is Drop C (CGCF).

Intro:
F|-------------------------------------------------------|
C|-------------------------------------------------------|
G|-0-0---0r-0-----0--0-0--------0------------------------|
C|------------3/5--------3333333---------------0---------|

Verse:
F|-------------------------------------------------------|
C|-------------------------------------------------------|
G|-0-0-0-0-0-0-0-0-0-0-0-0-0-0-0-0-0-0-0-0-0-0-0-0-------|
C|-------------------------------------------------------|

F|---------------------------|
C|---------------------------|
G|---------------------------|
C|-3-3-3-3-5-5-5-5-----------|

Verse variations:
Just a note on these: The variations are optional endings on some of the verses. AND 
4 YOU NEED TO USE BEFORE STARTING THE VERSE!!!!!
F|-------------------------------------------------------|
C|-------------------------------------------------------|
G|-0-0-0-0-0-0-0-0-0-0-0-0-0-0-0-0-0-0-0-0-0-0-0-0-------|
C|-------------------------------------------------------|
 Var. 1  Var. 2 Var. 3    Var. 4
F|-----|-------|---------|------|------------------------|
C|-----|-------|---------|------|------------------------|
G|-----|-------|---------|------|------------------------|
C|-3-3-|-3X----|-3333333-|-3-3--|------------------------|

Chorus:
F|-------------------------------------------------------|
C|-------------------------------------------------------|
G|-------------------------------------------------------|
C|-33-----7-7--7-7--33-----5-5--5-5----------------------|

Solo:
F|-------------------------------------------------------|
C|-------------------------------------------------------|
G|0-0-0-0-0-0-0-0-0-0-0-0-0-0-0-0-0-0-0-0-0-0-0-3-3-3-3--|
C|-------------------------------------------------------|

F|-------------------------------------------------------|
C|-------------------------------------------------------|
G|3-3-3-3------------------------------------------------|
C|--------3-3-3-3-3-3-3-3-3-3-3-3-3-3-3-3-5-5-5-5-5-5-5-5|

F|-------------------------------------------------------|
C|-------------------------------------------------------|
G|-------------------------------------------------------|
C|5-5-5-5-5-5-5-5----------------------------------------|

Post-Solo:
Just a note: The timing on the notes that ring out here you have to figure out yourself.
F|-------------------------------------------------------|
C|-------------------------------------------------------|
G|-0r-3r------0-0--0-0--0-0--0-0--0-0--0-0---------------|
C|------3r-5r------------------------------3-3--3-3--3-3-|

F|-------------------------------------------------------|
C|-------------------------------------------------------|
G|-------------------------------------------------------|
C|5-5--5-5-----------------------------------------------|

Ending:
F|-------------------------------------------------------|
C|-------------------------------------------------------|
G|5-5-5-5-0-0-0-0-0-0-0-0-0-0-0-0-0-0-0-0-0-0-0-0-0-0-0-0|
C|-------------------------------------------------------|

F|---------------------------|
C|---------------------------|
G|---------------------------|
C|-3---3p5-------------------|

ORDER YOU PLAY THE RIFFS:
Intro x 1
Verse x 1
Verse Var. 1 x1
Verse x 1
Verse Var. 2 x1
Verse x 1
Verse Var. 3 x1
Chorus x2
Verse x 1
Verse Var. 3 x 1
Verse x 1
Verse Var. 2 x 1
Chorus x 2
Solo x 2
Post-Solo x 1
Solo x 2
Var. 4 -> Verse x 1
Verse Var. 3 x 1
Verse x 1
Verse Var. 2 x 1
Chorus x 2
Ending x 1

| r  let ring
| /  slide up
| \  slide down
| h  hammer-on
| p  pull-off
| ~  vibrato
| +  harmonic
| x  Mute note
===============================================================================
Suggest correction
Give kudos to tab author, rate the tab!
1 2 3 4 5
comments
print report bad tab
guest
You may want to rate the tab now too:
select rating
Wanna post a correction for this tab? Suggest correction