Oops, an error
Loading. Please wait.

Suffocating Under Words Of Sorrow Tab

version 4
130,314 views 66 this week
33 commentsread comments
1 2 3 4 5
x 38
add to favorites
launch autoscroll
font size
0
reset
how to read this tab
guitar tuner
Autoscroll
slow
fast
+/-
esc
set tempo
stop
Help us to improve Ultimate-Guitar.com Take our survey!
×
Author
Difficulty
Tuning
intermediate
C G C F A D
Gtr I
  PM|    PM  PM|     PM  PM   PM   PM

D|------------------|-------------------|
A|------------------|-------------------|
F|------------------|-------------------|
C|-----10---9-----5-|---7---12---10---9-|
G|-0-0----0---0-0---|-0---0----0----0---|
C|------------------|-------------------|
 |
 | Gtr II
D|------------------|-------------------|
A|------------------|-------------------|
F|------------------|-------------------|
C|-2-2--------------|-----------------2-|
G|-0-0--------------|-----------------0-|
C|------------------|-------------------|


         PM--------|

D|--------------------|---------------------------------------|
A|--------------------|---------------------------------------|
F|--------------------|--9h10p===9--7h9p===7--5h7p===5--4-----|
C|-(9)-10-------------|---------------------------------------|
G|--------0-0-0-0-0-0-|-----------------------------------0---|
C|--------------------|---------------------------------------|
 |
 |                      Gtr III                           Gtr II
D|--------------------|---------------------------------------|
A|--------------------|---------------------------------------|
F|--------------------|---------------------------------------|
C|-(2)--2-------------|-----------------------------------2---|
G|-(0)--0-------------|-24S===22S==21S==19S==17S==15S==14-0---|
C|--------------------|-24S===22S==21S==19S==17S==15S==14-----|

  A5
       PM   PM  PM|     PM  PM   PM   PM
D|--------------------|-------------------|
A|--------------------|-------------------|
F|--------------------|-------------------|
C|-------10---9-----5-|---7---12---10---9-|
G|-(0)-0----0---0-0---|-0---0----0----0---|
C|--------------------|-------------------|
 |
D|--------------------|-------------------|
A|--------------------|-------------------|
F|--------------------|-------------------|
C|-(2)----------------|-----------------2-|
G|-(0)----------------|-----------------0-|
C|--------------------|-------------------|


         PM-----------------------------|

D|--------------------|----------------------|
A|--------------------|----------------------|
F|--------------------|--9-10--7--9-5--7-4---|
C|-(9)-10-------------|----------------------|
G|--------0-0-0-0-0-0-|--------------------0-|
C|--------------------|----------------------|
 |
 |                       PM--------------|
D|--------------------|----------------------|
A|--------------------|----------------------|
F|--------------------|-12-14-10-12-9-10-7---|
C|-(2)--2-------------|----------------------|
G|-(0)--0-------------|--------------------0-|
C|--------------------|----------------------|


   N.C.
       PM   PM   PM|     PM   PM   PM   PM
D|---------------------|---------------------|
A|---------------------|---------------------|
F|---------------------|---------------------|
C|-------10----9-----5-|----7---12---10----9-|
G|-(0)-0----0----0-0---|-0----0----0----0----|
C|---------------------|---------------------|
 |
 |     PM   PM   PM|     PM   PM   PM   PM
D|---------------------|---------------------|
A|---------------------|---------------------|
F|---------------------|---------------------|
C|-------14---12-----9-|---10---15---14---12-|
G|-(0)-0----0----0-0---|-0----0----0----0----|
C|---------------------|---------------------|


          PM--------|

D|---------------------|-------------------------------|
A|---------------------|-------------------------------|
F|---------------------|--9h10p=9--7h=9p=7-5h=7p5-4----|
C|--(9)-10-------------|-------------------------------|
G|---------0-0-0-0-0-0-|----------------------------0--|
C|---------------------|-------------------------------|
 |
 |         PM--------|
D|---------------------|-------------------------------|
A|---------------------|-------------------------------|
F|---------------------|-12h14p12-10h12p10-9h10p9-7----|
C|-(12)-14-------------|-------------------------------|
G|---------0-0-0-0-0-0-|----------------------------0--|
C|---------------------|-------------------------------|


   N.C.
       PM   PM   PM|     PM   PM   PM   PM
D|---------------------|---------------------|
A|---------------------|---------------------|
F|---------------------|---------------------|
C|-------10----9-----5-|----7---12---10----9-|
G|-(0)-0----0----0-0---|-0----0----0----0----|
C|---------------------|---------------------|
 |
 |     PM   PM   PM|     PM   PM   PM   PM
D|---------------------|---------------------|
A|---------------------|---------------------|
F|---------------------|---------------------|
C|-------14---12-----9-|---10---15---14---12-|
G|-(0)-0----0----0-0---|-0----0----0----0----|
C|---------------------|---------------------|


                                           F5
          PM-----------------------------|

D|---------------------|----------------------|
A|---------------------|----------------------|
F|---------------------|--9-10--7--9-5--7-4---|
C|--(9)-10-------------|--------------------3-|
G|---------0-0-0-0-0-0-|--------------------3-|
C|---------------------|--------------------3-|
 |
 |         PM-----------------------------|
D|---------------------|----------------------|
A|---------------------|----------------------|
F|---------------------|-12-14-10-12-9-10-7---|
C|-(12)-14-------------|--------------------3-|
G|---------0-0-0-0-0-0-|--------------------3-|
C|---------------------|--------------------3-|


[Verse]

   F5                           N.C.
                                          PM   PM   PM|     PM   PM   PM   PM
D|----------------|---------------||----------------------|-----------------|
A|----------------|---------------||o---------------------|-----------------|
F|-------5--5--5--|-5--4--4-4-4---||----------------------|-----------------|
C|-(3)-3----------|---------------||--------10----9-----5-|----7---12---10--|
G|-(3)-3-3--3--3--|-3--3--3-3-3-0-||o-(0)-0----0----0-0---|-0----0----0----0|
C|-(3)-3----------|---------------||----------------------|-----------------|
 |
 |                                        PM   PM   PM|     PM   PM   PM   PM
D|----------------|---------------||----------------------|-----------------|
A|----------------|---------------||o---------------------|-----------------|
F|----------------|---------------||----------------------|-----------------|
C|-(3)-3-3--3--3--|-3--3--3-3-3---||--------14---12-----9-|---10---15---14--|
G|-(3)-3-3--3--3--|-3--3--3-3-3-0-||o-(0)-0----0----0-0---|-0----0----0----0|
C|-(3)-3-3--3--3--|-3--3--3-3-3---||----------------------|-----------------|

N.C.
          PM--------|

D|---------------------|------------------------------|
A|---------------------|------------------------------|
F|---------------------|--9h10p=9--7h=9p=7-5h=7p5-4---|
C|--(9)-10-------------|------------------------------|
G|---------0-0-0-0-0-0-|----------------------------0-|
C|---------------------|------------------------------|
 |
 |         PM--------|
D|---------------------|------------------------------|
A|---------------------|------------------------------|
F|---------------------|-12h14p12-10h12p10-9h10p9-7---|
C|-(12)-14-------------|------------------------------|
G|---------0-0-0-0-0-0-|----------------------------0-|
C|---------------------|------------------------------|


       PM   PM   PM|     PM   PM   PM   PM
D|---------------------|----------------------|
A|---------------------|----------------------|
F|---------------------|----------------------|
C|-------10----9-----5-|----7---12---10----9--|
G|-(0)-0----0----0-0---|-0----0----0----0-----|
C|---------------------|----------------------|
 |
 |     PM   PM   PM|     PM   PM   PM   PM
D|---------------------|----------------------|
A|---------------------|----------------------|
F|---------------------|----------------------|
C|-------14---12-----9-|---10---15---14---12--|
G|-(0)-0----0----0-0---|-0----0----0----0-----|
C|---------------------|----------------------|


  N.C.
          PM-----------------------------|
D|---------------------|----------------------|
A|---------------------|----------------------|
F|---------------------|--9-10--7--9-5--7-4---|
C|--(9)-10-------------|----------------------|
G|---------0-0-0-0-0-0-|--------------------0-|
C|---------------------|----------------------|
 |
 |         PM-----------------------------|
D|---------------------|----------------------|
A|---------------------|----------------------|
F|---------------------|-12-14-10-12-9-10-7---|
C|-(12)-14-------------|----------------------|
G|---------0-0-0-0-0-0-|--------------------0-|
C|---------------------|----------------------|


       PM   PM   PM|     PM   PM   PM   PM
D|---------------------|---------------------|
A|---------------------|---------------------|
F|---------------------|---------------------|
C|-------10----9-----5-|----7---12---10----9-|
G|-(0)-0----0----0-0---|-0----0----0----0----|
C|---------------------|---------------------|
 |
 |     PM   PM   PM|     PM   PM   PM   PM
D|---------------------|---------------------|
A|---------------------|---------------------|
F|---------------------|---------------------|
C|-------14---12-----9-|---10---15---14---12-|
G|-(0)-0----0----0-0---|-0----0----0----0----|
C|---------------------|---------------------|


   N.C.
           PM--------|                                      PM   PM   PM|
D|---------------------|------------------------------|---------------------|
A|---------------------|------------------------------|---------------------|
F|---------------------|--9h10p=9--7h=9p=7-5h=7p5-4---|---------------------|
C|--(9)-10-------------|------------------------------|-------10----9-----5-|
G|---------0-0-0-0-0-0-|----------------------------0-|-(0)-0----0----0-0---|
C|---------------------|------------------------------|---------------------|
 |         PM--------|                                      PM   PM   PM|
D|---------------------|------------------------------|---------------------|
A|---------------------|------------------------------|---------------------|
F|---------------------|-12h14p12-10h12p10-9h10p9-7---|---------------------|
C|-(12)-14-------------|------------------------------|-------14---12-----9-|
G|---------0-0-0-0-0-0-|----------------------------0-|-(0)-0----0----0-0---|
C|---------------------|------------------------------|---------------------|

  N.C.                                                           F5
  PM   PM   PM   PM             PM-----------------------------|
D|---------------------|---------------------|----------------------|
A|---------------------|---------------------|----------------------|
F|---------------------|---------------------|--9-10--7--9-5--7-4---|
C|----7---12---10----9-|--(9)-10-------------|--------------------3-|
G|-0----0----0----0----|---------0-0-0-0-0-0-|--------------------3-|
C|---------------------|---------------------|--------------------3-|
 |
 | PM   PM   PM   PM             PM-----------------------------|
D|---------------------|---------------------|----------------------|
A|---------------------|---------------------|----------------------|
F|---------------------|---------------------|-12-14-10-12-9-10-7---|
C|---10---15---14---12-|-(12)-14-------------|--------------------3-|
G|-0----0----0----0----|---------0-0-0-0-0-0-|--------------------3-|
C|---------------------|---------------------|--------------------3-|


[Chorus]

   F5                           A5                                  F5
D|----------------|---------------|-----------------|-----------------|
A|----------------|---------------|-----------------|-----------------|
F|-------5--5--5--|-5--4--4-4-4-2-|-(2)-2-4p0-5---2-|-(2)-2-4p0-5-----|
C|-(3)-3----------|-------------2-|-(2)-2---------2-|-(2)-2---------3-|
G|-(3)-3-3--3--3--|-3--3--3-3-3-0-|-(0)-0---------0-|-(0)-0---------3-|
C|-(3)-3----------|---------------|-----------------|---------------3-|
 |
D|----------------|---------------|-----------------|-----------------|
A|----------------|---------------|-----------------|-----------------|
F|----------------|-------------2-|-(2)-2-7p0-9---2-|-(2)-2-7p0-9-----|
C|-(3)-3-3--3--3--|-3--3--3-3-3-2-|-(2)-2---------2-|-(2)-2---------3-|
G|-(3)-3-3--3--3--|-3--3--3-3-3-0-|-(0)-0---------0-|-(0)-0---------3-|
C|-(3)-3-3--3--3--|-3--3--3-3-3---|-----------------|---------------3-|


  F5                           G5                                     F5
                                                         PM---------|
D|----------------|---------------|-----------------|--------------------|
A|----------------|---------------|-----------------|--------------------|
F|-------5--5--5--|-5--4--4-4-4---|-------4p0-5-----|-----5-4----7-5-4---|
C|-(3)-3----------|-------------5-|-(5)-5---------5-|-(5)-----5--------3-|
G|-(3)-3-3--3--3--|-3--3--3-3-3-5-|-(5)-5---------5-|-(5)--------------3-|
C|-(3)-3----------|-------------5-|-(5)-5---------5-|-(5)--------------3-|
 |
 |                                                        PM---------|
D|----------------|---------------|-----------------|--------------------|
A|----------------|---------------|-----------------|--------------------|
F|----------------|---------------|-------7p0-9-----|-----9-7---10-9-7---|
C|-(3)-3-3--3--3--|-3--3--3-3-3-5-|-(5)-5---------5-|-(5)-----9--------3-|
G|-(3)-3-3--3--3--|-3--3--3-3-3-5-|-(5)-5---------5-|-(5)--------------3-|
C|-(3)-3-3--3--3--|-3--3--3-3-3-5-|-(5)-5---------5-|-(5)--------------3-|

   F5                           A5                                     F5
                                                             ~~~
D|----------------|---------------|-----------------|--------------------|
A|----------------|---------------|-----------------|--------------------|
F|-------5--5--5--|-5--4--4-4-4-2-|-(2)-2-4p0-5---2-|-(2)-2-[4]--2h4p2---|
C|-(3)-3----------|-------------2-|-(2)-2---------2-|-(2)-2------------3-|
G|-(3)-3-3--3--3--|-3--3--3-3-3-0-|-(0)-0---------0-|-(0)-0------------3-|
C|-(3)-3----------|---------------|-----------------|------------------3-|
 |
 |                                                           ~~~
D|----------------|---------------|-----------------|--------------------|
A|----------------|---------------|-----------------|--------------------|
F|----------------|-------------2-|-(2)-2-7p0-9---2-|-(2)-2-[7]--5h7p5---|
C|-(3)-3-3--3--3--|-3--3--3-3-3-2-|-(2)-2---------2-|-(2)-2------------3-|
G|-(3)-3-3--3--3--|-3--3--3-3-3-0-|-(0)-0---------0-|-(0)-0------------3-|
C|-(3)-3-3--3--3--|-3--3--3-3-3---|-----------------|------------------3-|


   F5                           G5                                     A5
D|----------------|---------------|-----------------|---------------------||
A|----------------|---------------|-----------------|--------------------o||
F|-------5--5--5--|-5--4--4-4-4---|-------4p0-5-----|-------4-0--7-5-4----||
C|-(3)-3----------|-------------5-|-(5)-5---------5-|-(5)-5---------------||
G|-(3)-3-3--3--3--|-3--3--3-3-3-5-|-(5)-5---------5-|-(5)-5------------0-o||
C|-(3)-3----------|-------------5-|-(5)-5---------5-|-(5)-5---------------||
 |
D|----------------|---------------|-----------------|---------------------||
A|----------------|---------------|-----------------|--------------------o||
F|----------------|---------------|-------7p0-9-----|-------7-0-10-9-7----||
C|-(3)-3-3--3--3--|-3--3--3-3-3-5-|-(5)-5---------5-|-(5)-5------------2--||
G|-(3)-3-3--3--3--|-3--3--3-3-3-5-|-(5)-5---------5-|-(5)-5------------0-o||
C|-(3)-3-3--3--3--|-3--3--3-3-3-5-|-(5)-5---------5-|-(5)-5---------------||

 Guitar Solo
   A5
D|--------------------|---------------------|---------------------|
A|-10-----------10-12-|-13---12---10--------|---------------10-12-|
F|--------------------|----------------10-9-|-(9)-----------------|
C|--------------------|---------------------|---------------------|
G|--------------------|---------------------|---------------------|
C|--------------------|---------------------|---------------------|
 |
 |    PM-----------------------------------------------------------
D|--------------------|---------------------|---------------------|
A|--------------------|---------------------|---------------------|
F|------2-----2-------|----2---------2------|-----2-------2-------|
C|--2---2-----2-------|----2---------2------|-----2-------2-------|
G|--0-0-0-0-0-0--0--0-|--0-0--0-0--0-0--0-0-|--0--0-0-0-0-0--0--0-|
C|--------------------|---------------------|---------------------|


   C5                                       F5
D|---------------------------------------------|
A|-(12)b13r(12)-(12)b13r(12)-(12)b13r(12)------|
F|----------------------------------------9-10-|
C|---------------------------------------------|
G|---------------------------------------------|
C|---------------------------------------------|
 |
D|---------------------------------------------|
A|---------------------------------------------|
F|---5-------5----5-------5----5-------5-------|
C|---5-------5----5-------5----5-------5--5--3-|
G|---3-------3----3-------3----3-------3--3--3-|
C|-------------------------------------------3-|


   F5                                          G5
D|----------------------|------------------------|
A|----------------10-12-|-/13----12---/15---12---|
F|-(10)-----------------|------------------------|
C|----------------------|------------------------|
G|----------------------|------------------------|
C|----------------------|------------------------|
 |
 |      PM--------|            PM-----------|
D|----------------------|------------------------|
A|----------------------|------------------------|
F|----------------------|------------------------|
C|--(3)---------------3-|--(3)-----------------5-|
G|--(3)---------------3-|--(3)-----------------5-|
C|--(3)-3-3-3-3-3--3--3-|--(3)-3--3-3---3-3--3-5-|
 |
 | Gtr IV
D|-----------------8-10-|-/12----10---/13---10---|
A|----------------------|------------------------|
F|----------------------|------------------------|
C|----------------------|------------------------|
G|----------------------|------------------------|
C|----------------------|------------------------|


                                           A5
D|-------------------|------------------------|
A|-13-------15-------|-13-----15p13p12--------|
F|-------------------|------------------------|
C|-------------------|------------------------|
G|-------------------|------------------------|
C|-------------------|------------------------|
 |
 |    PM----|    PM     PM|    PM
D|-------------------|------------------------|
A|-------------------|------------------------|
F|-------------------|---------------------2--|
C|--5----------5---5-|------7-------10-9-7-2--|
G|--5----------5---5-|---------------------0--|
C|--5-5-5-5--5-5-5-5-|--5-5----5--------------|
 |
D|-12-------13-------|-12-----13p12p10--------|
A|-------------------|------------------------|
F|-------------------|------------------------|
C|-------------------|------------------------|
G|-------------------|------------------------|
C|-------------------|------------------------|


   A5
                  T                T
D|-------------------------------------|
A|-------------------------------------|
F|--7h=9p7h9p7h9-14-9p7h9p7h9p7h9-12-9p|
C|-------------------------------------|
G|-------------------------------------|
C|-------------------------------------|
 |
 |       PM-----------------------------
D|-------------------------------------|
A|-------------------------------------|
F|-(2)---------------------------------|
C|-(2)-------2--------2-------2--------|
G|-(0)---0-0-0----0-0-0---0-0-0----0-0-|
C|-------------------------------------|


                                                                      C5
        T                T        T          T            T            T
D|------------------------------------|------------------------------------|
A|------------------------------------|------------------------------------|
F|-7h9-14-9p7h9p7h9p7h9-14-9p7h9-12-9p|=7h9-13-9p7h9p7h9-14-9p7h9p7h9-12-9-|
C|------------------------------------|------------------------------------|
G|------------------------------------|------------------------------------|
C|------------------------------------|------------------------------------|
 |
D|------------------------------------|------------------------------------|
A|------------------------------------|------------------------------------|
F|------------------------------------|------------------------------------|
C|-2--------2-------2--------2--------|-2--------2--------2-------2--------|
G|-0----0-0-0---0-0-0----0-0-0----0-0-|-0----0-0-0---0-0--0---0-0-0----3-3-|
C|------------------------------------|------------------------------------|

  C5                         F5
              T
D|--------------------------------|-------------------------|
A|--------------------------------|-------------------------|
F|-7h9p7h9p7-12-7h9---------------|-------------------------|
C|------------------10\-----------|-7-----------9-----------|
G|------------------10\-----------|-------------------------|
C|--------------------------------|-------------------------|
 |
 | PM--------------------------------------------------------
D|--------------------------------|-------------------------|
A|--------------------------------|-------------------------|
F|--------------------------------|-------------------------|
C|-5-------5---------5------5-----|-------------------------|
G|-3---3-3-3----3-3--3--3-3-3-----|-3-----3-----3-----3-----|
C|----------------------------3-3-|-3-3-3-3-3-3-3-3-3-3-3-3-|


                         G5
D|---------------------------|----------------------------|
A|---------------------------|----------------------------|
F|---------------------------|--9-----------10------------|
C|-10-----------12-----------|-10-----------12------------|
G|---------------------------|----------------------------|
C|---------------------------|----------------------------|
 |
D|---------------------------|----------------------------|
A|---------------------------|----------------------------|
F|---------------------------|----------------------------|
C|---------------------------|----------------------------|
G|--3-----3------3-----3-----|--5-----5------5-----5------|
C|--3-3-3-3-3-3--3-3-3-3-5-5-|--5-5-5-5-5-5--5-5-5-5-5-5--|


[Bridge]
   G5                         A5
                              >
D|--------------------------|-------------------|
A|--------------------------|-------------------|
F|--9-----------7-----------|-5-----------------|
C|-10-----------9-----------|-7-----------------|
G|--------------------------|-------------------|
C|--------------------------|-------------------|
 |
 |  PM--------------------------|    PM     PM
D|--------------------------|-------------------|
A|--------------------------|-------------------|
F|--------------------------|-------------------|
C|--------------------------|-----10---10-9-----|
G|--5-----5-----5-----5-----|-0-0----0------0-0-|
C|--5-5-5-5-5-5-5-5-5-5-5-5-|-------------------|
 |
 | Gtr V
D|--------------------------|-------------------|
A|--------------------------|-------------------|
F|--------------------------|-2-----------------|
C|--------------------------|-2-----------------|
G|--------------------------|-0-----------------|
C|--------------------------|-------------------|


D|---------------------|---------------------|-----------------------|
A|---------------------|---------------------|-----------------------|
F|-(5)-----------------|-(5)-----------------|-----------------------|
C|-(7)-----------------|-(7)-----------------|-----------------------|
G|---------------------|---------------------|-----------------------|
C|---------------------|---------------------|-----------------------|
 |
 |  PM-|      PM|         PM-|    PM     PM     PM-|      PM|
D|---------------------|---------------------|-----------------------|
A|---------------------|---------------------|-----------------------|
F|---------------------|---------------------|-----------------------|
C|-12----12-9-----9-10-|-------10---10-9-----|-12----12-9-----9-10---|
G|-----0------0-0------|--0--0----0------0-0-|-----0------0-0--------|
C|---------------------|---------------------|-----------------------|
 |
D|---------------------|---------------------|-----------------------|
A|---------------------|---------------------|-----------------------|
F|-(2)-----------------|-(2)-----------------|-(2)-------------------|
C|-(2)-----------------|-(2)-----------------|-(2)-------------------|
G|-(0)-----------------|-(0)-----------------|-(0)-------------------|
C|---------------------|---------------------|-----------------------|

   F5
D|-------------------|---------------------|
A|-------------------|---------------------|
F|-------------------|---------------------|
C|-------------------|---------------------|
G|-------------------|---------------------|
C|-------------------|---------------------|
 |
 | PM|    PM     PM     PM-|      PM|
D|-------------------|---------------------|
A|-------------------|---------------------|
F|-------------------|---------------------|
C|-----10---10-9-----|-12----12-9-----9-10-|
G|-8-8----8------8-8-|-----8------8-8------|
C|-------------------|---------------------|
 |
D|-------------------|---------------------|
A|-------------------|---------------------|
F|-------------------|---------------------|
C|-3-----------------|-(3)-----------------|
G|-3-----------------|-(3)-----------------|
C|-3-----------------|-(3)-----------------|


   G5
D|------------------------|------------------------|
A|------------------------|------------------------|
F|------------------------|------------------------|
C|------------------------|------------------------|
G|------------------------|------------------------|
C|------------------------|------------------------|
 |
 |  PM|      PM      PM      PM-|        PM|
D|------------------------|------------------------|
A|------------------------|------------------------|
F|------------------------|------------------------|
C|-------10----10-9-------|-12-----12-9-------9-10-|
G|-10-10----10------10-10-|-----10------10-10------|
C|------------------------|------------------------|
 |
D|------------------------|------------------------|
A|------------------------|------------------------|
F|------------------------|------------------------|
C|--5---------------------|-(5)--------------------|
G|--5---------------------|-(5)--------------------|
C|--5---------------------|-(5)--------------------|


   A5
   PM|           PM|             PM|
D|-------------------|--------------------|
A|-------------------|--------------------|
F|-------------------|--------------------|
C|-2-2-----------2-2-|-----------2-2------|
G|-0-0-----------0-0-|-----------0-0------|
C|-------------------|--------------------|
 |
 | PM|    PM     PM     PM|      PM|
D|-------------------|--------------------|
A|-------------------|--------------------|
F|-------------------|--------------------|
C|-----10---10-9-----|-12---12-9-----9-10-|
G|-0-0----0------0-0-|----0------0-0------|
C|-------------------|--------------------|


   PM|           PM|             PM|
D|-------------------|--------------------|
A|-------------------|--------------------|
F|-------------------|--------------------|
C|-2-2-----------2-2-|-----------2-2------|
G|-0-0-----------0-0-|-----------0-0------|
C|-------------------|--------------------|
 |
 | PM|    PM     PM     PM|      PM|
D|-------------------|--------------------|
A|-------------------|--------------------|
F|-------------------|--------------------|
C|-----10---10-9-----|-12---12-9-----9-10-|
G|-0-0----0------0-0-|----0------0-0------|
C|-------------------|--------------------|


   F5
   PM|           PM|             PM|
D|-------------------|--------------------|
A|-------------------|--------------------|
F|-------------------|--------------------|
C|-------------------|--------------------|
G|-3-3-----------3-3-|-----------3-3------|
C|-3-3-----------3-3-|-----------3-3------|
 |
 | PM|    PM     PM     PM|      PM|
D|-------------------|--------------------|
A|-------------------|--------------------|
F|-------------------|--------------------|
C|-----10---10-9-----|-12---12-9-----9-10-|
G|-8-8----8------8-8-|----8------8-8------|
C|-------------------|--------------------|


   G5
    PM|              PM|           ~~
D|------------------------|-------------|
A|------------------------|-------------|
F|------------------------|-------------|
C|------------------------|-15----14----|
G|--5--5-------------5--5-|-------------|
C|--5--5-------------5--5-|-------------|
 |
 |  PM|      PM      PM            ~~
D|------------------------|-------------|
A|------------------------|-------------|
F|------------------------|-------------|
C|-------10----10-9-------|-12----10----|
G|-10-10----10------10-10-|-------------|
C|------------------------|-------------|


   N.C.
   PM|    PM     PM|      PM     PM|
D|-------------------|--------------------|
A|-------------------|--------------------|
F|------9----9-7-----|-10---10-7-----7--9-|
C|-7-7----7------7-7-|----7------7-7------|
G|-------------------|--------------------|
C|-------------------|--------------------|
 |
 | PM|    PM     PM     PM|      PM|
D|-------------------|--------------------|
A|-------------------|--------------------|
F|-------------------|--------------------|
C|-----10---10-9-----|-12---12-9-----9-10-|
G|-0-0----0------0-0-|----0------0-0------|
C|-------------------|--------------------|


   PM|    PM     PM|      PM     PM|
D|-------------------|--------------------|
A|-------------------|--------------------|
F|------9----9-7-----|-10---10-7-----7--9-|
C|-7-7----7------7-7-|----7------7-7------|
G|-------------------|--------------------|
C|-------------------|--------------------|
 |
 | PM|    PM     PM     PM|      PM|
D|-------------------|--------------------|
A|-------------------|--------------------|
F|-------------------|--------------------|
C|-----10---10-9-----|-12---12-9-----9-10-|
G|-0-0----0------0-0-|----0------0-0------|
C|-------------------|--------------------|


   N.C.
   PM|    PM     PM|      PM     PM|
D|-------------------|--------------------|
A|-------------------|--------------------|
F|------9----9-7-----|-10---10-7-----7--9-|
C|-7-7----7------7-7-|----7------7-7------|
G|-------------------|--------------------|
C|-------------------|--------------------|
 |
 | PM|    PM     PM     PM|      PM|
D|-------------------|--------------------|
A|-------------------|--------------------|
F|-------------------|--------------------|
C|-----10---10-9-----|-12---12-9-----9-10-|
G|-8-8----8------8-8-|----8------8-8------|
C|-------------------|--------------------|


    PM|      PM      PM|        PM      PM|
D|------------------------|-----------------------|
A|------------------------|-----------------------|
F|--------9-----9-7-------|-10----10-7-------7--9-|
C|--9--9-----9-------9--9-|-----9-------9--9------|
G|------------------------|-----------------------|
C|------------------------|-----------------------|
 |
 |  PM|      PM      PM      PM|        PM|
D|------------------------|-----------------------|
A|------------------------|-----------------------|
F|------------------------|-----------------------|
C|-------10----10-9-------|-12----12-9-------9-10-|
G|-10-10----10------10-10-|----10------10-10------|
C|------------------------|-----------------------|


   Am                  Bm
   PM|    PM     PM|      PM     PM|
D|-------------------|--------------------|
A|-------------------|--------------------|
F|------9----9-7-----|-10---10-7-----7--9-|
C|-7-7----7------7-7-|----7------7-7------|
G|-------------------|--------------------|
C|-------------------|--------------------|
 |
 | PM|    PM     PM     PM|      PM|
D|-------------------|--------------------|
A|-------------------|--------------------|
F|-------------------|--------------------|
C|-----10---10-9-----|-12---12-9-----9-10-|
G|-0-0----0------0-0-|----0------0-0------|
C|-------------------|--------------------|
 |
 | Gtr IV
D|-------------------|--------------------|
A|-------------------|--------------------|
F|-5-----------------|--7-----------------|
C|-7-----------------|--9-----------------|
G|-------------------|--------------------|
C|-------------------|--------------------|


   C                    Dm        Bm
    PM|    PM     PM|      PM     PM|
D|--------------------|--------------------|
A|--------------------|--------------------|
F|-------9----9-7-----|-10---10-7-----7--9-|
C|--7-7----7------7-7-|----7------7-7------|
G|--------------------|--------------------|
C|--------------------|--------------------|
 |
 |  PM|    PM     PM     PM|      PM|
D|--------------------|--------------------|
A|--------------------|--------------------|
F|--------------------|--------------------|
C|------10---10-9-----|-12---12-9-----9-10-|
G|--0-0----0------0-0-|----0------0-0------|
C|--------------------|--------------------|
 |
D|--------------------|--------------------|
A|--------------------|--------------------|
F|--9-----------------|-10--------7--------|
C|-10-----------------|-12--------9--------|
G|--------------------|--------------------|
C|--------------------|--------------------|


   C
    PM|    PM     PM|        PM     PM|
D|--------------------|----------------------|
A|--------------------|----------------------|
F|-------9----9-7-----|--10----10-7-----7--9-|
C|--7-7----7------7-7-|------7------7-7------|
G|--------------------|----------------------|
C|--------------------|----------------------|
 |
 |  PM|    PM     PM      PM-|      PM|
D|--------------------|----------------------|
A|--------------------|----------------------|
F|--------------------|----------------------|
C|------10---10-9-----|--12----12-9-----9-10-|
G|--8-8----8------8-8-|------8------8-8------|
C|--------------------|----------------------|
 |
D|--------------------|----------------------|
A|--------------------|----------------------|
F|--9-----------------|--(9)-----------------|
C|-10-----------------|-(10)-----------------|
G|--------------------|----------------------|
C|--------------------|----------------------|


   Bm
    PM|      PM      PM|         PM      PM|
D|------------------------|------------------------|
A|------------------------|------------------------|
F|--------9-----9-7-------|-10-----10-7-------7--9-|
C|--9--9-----9-------9--9-|------9-------9--9------|
G|------------------------|------------------------|
C|------------------------|------------------------|
 |
 |  PM|      PM      PM      PM-|        PM|
D|------------------------|------------------------|
A|------------------------|------------------------|
F|------------------------|------------------------|
C|-------10----10-9-------|-12-----12-9-------9-10-|
G|-10-10----10------10-10-|-----10------10-10------|
C|------------------------|------------------------|
 |
D|------------------------|------------------------|
A|------------------------|------------------------|
F|--7---------------------|-(7)--------------------|
C|--9---------------------|-(9)--------------------|
G|------------------------|------------------------|
C|------------------------|------------------------|


[Verse]
   A5
   PM|    PM  PM|     PM  PM   PM   PM
D|------------------|--------------------|
A|------------------|--------------------|
F|------------------|--------------------|
C|-----10---9-----5-|---7---12---10----9-|
G|-0-0----0---0-0---|-0---0----0----0----|
C|------------------|--------------------|
 |
D|------------------|--------------------|
A|------------------|--------------------|
F|------------------|--------------------|
C|-2----------------|-----------------12-|
G|-0----------------|--------------------|
C|------------------|--------------------|


          PM--------|

D|---------------------|-------------------------------|
A|---------------------|-------------------------------|
F|---------------------|--9h10p=9--7h=9p=7-5h=7p5-4----|
C|--(9)-10-------------|-------------------------------|
G|---------0-0-0-0-0-0-|----------------------------0--|
C|---------------------|-------------------------------|
 |
 |         PM--------|
D|---------------------|-------------------------------|
A|---------------------|-------------------------------|
F|---------------------|-12h14p12-10h12p10-9h10p9-7----|
C|-(12)-14-------------|-------------------------------|
G|---------0-0-0-0-0-0-|----------------------------0--|
C|---------------------|-------------------------------|


   N.C.
       PM   PM   PM|     PM   PM   PM   PM
D|---------------------|---------------------|
A|---------------------|---------------------|
F|---------------------|---------------------|
C|-------10----9-----5-|----7---12---10----9-|
G|-(0)-0----0----0-0---|-0----0----0----0----|
C|---------------------|---------------------|
 |
 |     PM   PM   PM|     PM   PM   PM   PM
D|---------------------|---------------------|
A|---------------------|---------------------|
F|---------------------|---------------------|
C|-------14---12-----9-|---10---15---14---12-|
G|-(0)-0----0----0-0---|-0----0----0----0----|
C|---------------------|---------------------|


          PM-----------------------------|

D|---------------------|----------------------|
A|---------------------|----------------------|
F|---------------------|--9-10--7--9-5--7-4---|
C|--(9)-10-------------|----------------------|
G|---------0-0-0-0-0-0-|--------------------0-|
C|---------------------|----------------------|
 |
 |         PM-----------------------------|
D|---------------------|----------------------|
A|---------------------|----------------------|
F|---------------------|-12-14-10-12-9-10-7---|
C|-(12)-14-------------|----------------------|
G|---------0-0-0-0-0-0-|--------------------0-|
C|---------------------|----------------------|


   N.C.
       PM   PM   PM|     PM   PM   PM   PM
D|---------------------|---------------------|
A|---------------------|---------------------|
F|---------------------|---------------------|
C|-------10----9-----5-|----7---12---10----9-|
G|-(0)-0----0----0-0---|-0----0----0----0----|
C|---------------------|---------------------|
 |
 |     PM   PM   PM|     PM   PM   PM   PM
D|---------------------|---------------------|
A|---------------------|---------------------|
F|---------------------|---------------------|
C|-------14---12-----9-|---10---15---14---12-|
G|-(0)-0----0----0-0---|-0----0----0----0----|
C|---------------------|---------------------|


          PM--------|

D|---------------------|-------------------------------|
A|---------------------|-------------------------------|
F|---------------------|--9h10p=9--7h=9p=7-5h=7p5-4----|
C|--(9)-10-------------|-------------------------------|
G|---------0-0-0-0-0-0-|----------------------------0--|
C|---------------------|-------------------------------|
 |
 |         PM--------|
D|---------------------|-------------------------------|
A|---------------------|-------------------------------|
F|---------------------|-12h14p12-10h12p10-9h10p9-7----|
C|-(12)-14-------------|-------------------------------|
G|---------0-0-0-0-0-0-|----------------------------0--|
C|---------------------|-------------------------------|


   N.C.
       PM   PM   PM|     PM   PM   PM   PM
D|---------------------|---------------------|
A|---------------------|---------------------|
F|---------------------|---------------------|
C|-------10----9-----5-|----7---12---10----9-|
G|-(0)-0----0----0-0---|-0----0----0----0----|
C|---------------------|---------------------|
 |
 |     PM   PM   PM|     PM   PM   PM   PM
D|---------------------|---------------------|
A|---------------------|---------------------|
F|---------------------|---------------------|
C|-------14---12-----9-|---10---15---14---12-|
G|-(0)-0----0----0-0---|-0----0----0----0----|
C|---------------------|---------------------|


                                           F5
          PM-----------------------------|

D|---------------------|----------------------|
A|---------------------|----------------------|
F|---------------------|--9-10--7--9-5--7-4---|
C|--(9)-10-------------|--------------------3-|
G|---------0-0-0-0-0-0-|--------------------3-|
C|---------------------|--------------------3-|
 |
 |         PM-----------------------------|
D|---------------------|----------------------|
A|---------------------|----------------------|
F|---------------------|-12-14-10-12-9-10-7---|
C|-(12)-14-------------|--------------------3-|
G|---------0-0-0-0-0-0-|--------------------3-|
C|---------------------|--------------------3-|


[Chorus]

   F5                           A5                                  F5
D|----------------|---------------|-----------------|-----------------|
A|----------------|---------------|-----------------|-----------------|
F|-------5--5--5--|-5--4--4-4-4-2-|-(2)-2-4p0-5---2-|-(2)-2-4p0-5-----|
C|-(3)-3----------|-------------2-|-(2)-2---------2-|-(2)-2---------3-|
G|-(3)-3-3--3--3--|-3--3--3-3-3-0-|-(0)-0---------0-|-(0)-0---------3-|
C|-(3)-3----------|---------------|-----------------|---------------3-|
 |
D|----------------|---------------|-----------------|-----------------|
A|----------------|---------------|-----------------|-----------------|
F|----------------|-------------2-|-(2)-2-7p0-9---2-|-(2)-2-7p0-9-----|
C|-(3)-3-3--3--3--|-3--3--3-3-3-2-|-(2)-2---------2-|-(2)-2---------3-|
G|-(3)-3-3--3--3--|-3--3--3-3-3-0-|-(0)-0---------0-|-(0)-0---------3-|
C|-(3)-3-3--3--3--|-3--3--3-3-3---|-----------------|---------------3-|


  F5                           G5                                     F5
                                                         PM---------|

D|----------------|---------------|-----------------|--------------------|
A|----------------|---------------|-----------------|--------------------|
F|-------5--5--5--|-5--4--4-4-4---|-------4p0-5-----|-----5-4----7-5-4---|
C|-(3)-3----------|-------------5-|-(5)-5---------5-|-(5)-----5--------3-|
G|-(3)-3-3--3--3--|-3--3--3-3-3-5-|-(5)-5---------5-|-(5)--------------3-|
C|-(3)-3----------|-------------5-|-(5)-5---------5-|-(5)--------------3-|
 |
 |                                                        PM---------|
D|----------------|---------------|-----------------|--------------------|
A|----------------|---------------|-----------------|--------------------|
F|----------------|---------------|-------7p0-9-----|-----9-7---10-9-7---|
C|-(3)-3-3--3--3--|-3--3--3-3-3-5-|-(5)-5---------5-|-(5)-----9--------3-|
G|-(3)-3-3--3--3--|-3--3--3-3-3-5-|-(5)-5---------5-|-(5)--------------3-|
C|-(3)-3-3--3--3--|-3--3--3-3-3-5-|-(5)-5---------5-|-(5)--------------3-|


   F5                           A5                                     F5
                                                             ~~~
D|----------------|---------------|-----------------|--------------------|
A|----------------|---------------|-----------------|--------------------|
F|-------5--5--5--|-5--4--4-4-4-2-|-(2)-2-4p0-5---2-|-(2)-2-[4]--2h4p2---|
C|-(3)-3----------|-------------2-|-(2)-2---------2-|-(2)-2------------3-|
G|-(3)-3-3--3--3--|-3--3--3-3-3-0-|-(0)-0---------0-|-(0)-0------------3-|
C|-(3)-3----------|---------------|-----------------|------------------3-|
 |
 |                                                           ~~~
D|----------------|---------------|-----------------|--------------------|
A|----------------|---------------|-----------------|--------------------|
F|----------------|-------------2-|-(2)-2-7p0-9---2-|-(2)-2-[7]--5h7p5---|
C|-(3)-3-3--3--3--|-3--3--3-3-3-2-|-(2)-2---------2-|-(2)-2------------3-|
G|-(3)-3-3--3--3--|-3--3--3-3-3-0-|-(0)-0---------0-|-(0)-0------------3-|
C|-(3)-3-3--3--3--|-3--3--3-3-3---|-----------------|------------------3-|

  G5
D|-----------------|--------------------|
A|-----------------|--------------------|
F|-------4p0-5-----|-------4-0--7-5-4---|
C|-(5)-5---------5-|-(5)-5--------------|
G|-(5)-5---------5-|-(5)-5------------0-|
C|-(5)-5---------5-|-(5)-5--------------|
 |
D|-----------------|--------------------|
A|-----------------|--------------------|
F|-------7p0-9-----|-------7-0-10-9-7---|
C|-(5)-5---------5-|-(5)-5--------------|
G|-(5)-5---------5-|-(5)-5------------0-|
C|-(5)-5---------5-|-(5)-5--------------|


[Outro]

       PM   PM   PM|     PM   PM   PM   PM
D|---------------------|---------------------|
A|---------------------|---------------------|
F|---------------------|---------------------|
C|-------10----9-----5-|----7---12---10----9-|
G|-(0)-0----0----0-0---|-0----0----0----0----|
C|---------------------|---------------------|
 |
 |     PM   PM   PM|     PM   PM   PM   PM
D|---------------------|---------------------|
A|---------------------|---------------------|
F|---------------------|---------------------|
C|-------14---12-----9-|---10---15---14---12-|
G|-(0)-0----0----0-0---|-0----0----0----0----|
C|---------------------|---------------------|


  N.C.
          PM--------|                              ~~~~~~~~

D|---------------------|------------------------------|----------*|
A|---------------------|------------------------------|----------*|
F|---------------------|--9h10p=9--7h=9p=7-5h=7p5-4-2-|-(2)------*|
C|--(9)-10-------------|------------------------------|----------*|
G|---------0-0-0-0-0-0-|------------------------------|----------*|
C|---------------------|------------------------------|----------*|
 |
 |         PM--------|                              ~~~~~~~~
D|---------------------|------------------------------|----------*|
A|---------------------|------------------------------|----------*|
F|---------------------|-12h14p12-10h12p10-9h10p9-7-9-|-(9)------*|
C|-(12)-14-------------|------------------------------|----------*|
G|---------0-0-0-0-0-0-|------------------------------|----------*|
C|---------------------|------------------------------|----------*|


************************************

| (n)  Ghost note
| h    Hammer-on
| p    Pull-off
| /    Slide up
| \    Slide down
| b    bend
| PM   palm mute
| r    release
| s    slide

************************************
Suggest correction
comments
print report bad tab
33 comments total. Showing first comments.
0 reply
binksy45 10 Jan 04, 2006 08:28 AM

i found that this tab was very accurate in most areas, all though im not use to pull offs with hammers ( only been playing for a while ) but from what ive played its *****

0 reply
Bam_HIM_Bassist 50 Jan 06, 2006 02:25 PM

This is a great tab. Well done, although there are a few pull-offs & hammers, mainly in the part after the solo. but except from that. a perfect tab!

0 reply
callumjif 224 Jan 06, 2006 03:04 PM

thanks =D

guest
You may want to rate the tab now too:
select rating
Wanna post a correction for this tab? Suggest correction