Oops, an error
Loading. Please wait.

Suffocating Under Words Of Sorrow Tab

version 5
2,612 views 3 this week
4 commentsread comments
1 2 3 4 5
accurate
x 4
add to favorites
launch autoscroll
font size
0
reset
how to read this tab
guitar tuner
Autoscroll
slow
fast
+/-
esc
set tempo
stop
Help us to improve Ultimate-Guitar.com Take our survey!
×
Contributor
Difficulty
intermediate
bullet for my valentine - suffocating under words of sorrow

drop c tuning (CGCFAD)

h - hammer on
p - pull-off
x/- pick slide/scrape
/ - slide
* - pinch harmonic
t - tap
~ - hold/waver note

INTRO/VERSE
GUITAR 1
 PM_ _     _ _   _    _   _   _    _ _ _ _ _
D-----------------------------------------------------------------|
A-----------------------------------------------------------------|
F-------------------------------------------9h10-9/7h9p7/5h7p5/4--|
C------10-9-------------12--10-9-10-----------------------------0-|
G---0-0--0-0-0-10-0-12-0--10--0----0-0-0-0-0----------------------|
C-----------------------------------------------------------------|
PM_ _ _ _ _ _ _ _]
D----------------------------------------------------------------|
A----------------------------------------------------------------|
F-9-10-7-9-5-7-4-------------------------------------------------|
C-------------------10-9-----------12-10-9--10-------------------|
G---------------0--0--0-0-0-10-12-0--0--0-----0-0-0-0-0-0-0-0----|
C----------------------------------------------------------------|
 PM                       _  _ _ _ _ _ _
D------------------------------------------3-3-3--3-3--3-3-3-----|
A------------------------------------------6-6-6--5-5--3-3-3-----|
F---9h10-9/7h9p7/5h7p5/4--9-10-7-9-5-7-4---5-5-5--5-5--5-5-5-----|
C------------------------------------------3-3-3--3-3--3-3-3-----|
G--------------------------------------3--3------------------0---|
C-----------------------7--------------3--3----------------------|

GUITAR 2

D-----------------------------------------------------------------|
A-----------------------------------------------------------------|
F-----------------------------------------------------------------|
C--2-2-------------------2-2---------x///-------------2-----------|
G--2-2-------------------2-2---------x///-------------2-----------|
C--0-0-------------------0-0--------------------------0-----------|

D-----------------------------------------------------------------|
A-----------------------------------------------------------------|
F-12-14-10-12-9-10-7----------------------------------------------|
C-----------------------14-12------10----10-14-12--14-------------|
G-------------------0--0--0--0-0-14--14-0--0--0------0-0-0-0-0----|
C-----------------------------------------------------------------|
PM                           _ __ __ __ _ __ _
D--------------------------------------------------3-3-3-3-3-3-3-3-|
A--------------------------------------------------6-6-6-5-5-3-3-3-|
F12h14p12/10h12p10/9h10p9/7-12-14-10-12-9-10-7-----5-5-5-5-5-5-5-5-|
C----------------------------------------------3-3-3-3-3-3-3-3-3-3-|
G--------------------------0-------------------3-3-----------------|
C----------------------------------------------3-3-----------------|

CHORUS
GUITAR 1

D------3-3-3--3-3--3-3-3--------------------|
A------6-6-6--5-5--5-5-5--------------------|
F------5-5-5--5-5--5-5-5--2---2--4p0--5-----|
C--3-3-3-3-3--3-3--3-3-3--2---2--------2----|
G--3-3--------------------0---0--------0----|
C--3-3--------------------------------------|

D--------------------3-3-3--3-3--3-3-3---------------------------|
A--------------------6-6-6--5-5--3-3-3---------------------------|
F------4--5--4-------5-5-5--5-5--5-5-5----4p0-5---4p0-5p4p0------|
C--5-5--5---5--3-3---3-3-3--3-3--3-3-3-5-5-----5-5---------------|
G--5-5---------3-3---------------------5-5-----5-5---------0-----|
C--5-5---------3-3---------------------5-5-----5-5---------------|

GUITAR 2

D----------------3-3-3--3-3--3-3-3-------------|
A----------------6-6-6--5-5--3-3-3-------------|
F---4p0-5--------5-5-5--5-5--5-5-5----4p0-5----|
C--2-------3-3---3-3-3--3-3--3-3-3-5-5-----5-5-|
G--0-------3-3---------------------5-5-----5-5-|
C----------3-3---------------------5-5-----5-5-|

D----------------------3-3-3--3-3--3-3-3---------------------------|
A----------------------6-6-6--5-5--3-3-3---------------------------|
F---7*hp7-5*h7p5-------5-5-5--5-5--5-5-5----4p0-5---4p0-5p4p0------|
C--2-------------3-3---3-3-3--3-3--3-3-3-5-5-----5-5---------------|
G--0-------------3-3---------------------5-5-----5-5---------0-----|
C----------------3-3---------------------5-5-----5-5---------------|

SOLO
GUITAR 1
       ~~~~~~~                   ~~~~~~
D----------------------------------------------------------------|
A---5/-10------10-12-13-12-10-----------10--(12)-(10)-(12)-------|
F-------------9--------------10-9------9-------------------9--10-|
C----------------------------------------------------------------|
G----------------------------------------------------------------|
C----------------------------------------------------------------|

GUITAR 1
D---------------------------------------------------------------|
A----10-12-13-12-13/15-13-13-15-13--13h15p13/12-----------------|
F--10-----------------------------------------------------------|
C---------------------------------------------------------------|
G---------------------------------------------------------------|
C---------------------------------------------------------------|

GUITAR 2
D----8--10-12-10-12/13-12-12-13-12--12h13p12/10-----------------|
A--10-----------------------------------------------------------|
F---------------------------------------------------------------|
C---------------------------------------------------------------|
G---------------------------------------------------------------|
C---------------------------------------------------------------|

D---------------------------------------------------------------|
A---------------------------------------------------------------|
F--7h9p7h9p7h9t14-7h9p7h9p7h9t13-7h9p7h9p7h9t14-7h9p7h9p7h9t13--|
C---------------------------------------------------------------|
G---------------------------------------------------------------|
C---------------------------------------------------------------|

D---------------------------------------------------------------|
A---------------------------------------------------------------|
F--9p7h9t13-7-9-7t12-7h9p7h9p7h9t14-7h9p7h9p7h9-7h9p7h9p7h9t14--|
C---------------------------------------------------------------|
G---------------------------------------------------------------|
C---------------------------------------------------------------|

GUITAR 1
D---------------------------------------------------------------|
A---------------------------------5---6---5---3---3h5p3---------|
F--9p7h9p7-7-7-------4---5---7----------------------------------|
C----------------2/7--------------------------------------------|
G--------------8\-----------------------------------------------|
C---------------------------------------------------------------|

GUITAR 2
D---------------------------------------------------------------|
A---------------------------------------------------------------|
F--------------------------------5---7---5---4---4h5p4----------|
C---------------------------------------------------------------|
G---------------------------------------------------------------|
C---------------------------------------------------------------|

INTERLUDE

GUITAR 1
PM _ _  _    _ _    _ _    _ _  _    _ _    _ _
D---------------------------------------------------|
A---------------------------------------------------|
F---------------------------------------------------|
C-----10-10p9---12p9---9h10---10-10p9---12p9---9h10-|
G--0-0--0----0-0----0-0----0-0--0----0-0----0-0-----|
C---------------------------------------------------|

PM _ _  _    _ _    _ _    _ _  _    _ _    _ _
D---------------------------------------------------|
A---------------------------------------------------|
F---------------------------------------------------|
C-----10-10p9---12p9---9h10---10-10p9---12p9---10p9-|
G--0-0--0----0-0----0-0----0-0--0----0-0----0-0-----|
C---------------------------------------------------|

GUITAR 2
PM _ _  _     _ _  _     _ _     _ _  _     _ _  _     _ _
D---------------------------------------------------------------|
A---------------------------------------------------------------|
F---------------------------------------------------------------|
C-----14-14p12---15-15p12---12h14---14-14p12---15-15p12---12h14-|
G--0-0--0-----0-0--0-----0-0-----0-0--0-----0-0--0-----0-0------|
C---------------------------------------------------------------|

PM _ _  _     _ _  _     _ _     _ _  _     _ _  _     _ _
D---------------------------------------------------------------|
A---------------------------------------------------------------|
F---------------------------------------------------------------|
C-----14-14p12---15-15p12---12h14---14-14p12---15-15p12---12h14-|
G--0-0--0-----0-0--0-----0-0-----0-0--0-----0-0--0-----0-0------|
C---------------------------------------------------------------|


dere we go i play this song very often i believe it is correct but i cannot work out the 
guitar behind the solo because i play lead soz guys but hav fun!
Suggest correction new What's this?
You can suggest a correction to this tab. Community and Mods will review your correction and vote to approve or reject it.
comments
print report bad tab
4 comments total. Showing first comments.
0 reply
Ice7771 125 wrote on December 29 2006, 09:32 am

Awful, tab is unfinished, many mistakes, even the first chord is wrong for guitar 2, they play 777 not 022, main riff is pretty good compared to others ive seen but a few small mistakes still.

0 reply
metal_lover4eve 112 wrote on January 3 2007, 02:25 pm

U have many mistakes in this tab most of it is wrong bUt atLeast U tried

0 reply
me1r 14 wrote on February 12 2007, 09:11 am

why 7?? look at this http://www.youtube.com/watch?v=eXo83rWslt0&mode=related&search=
good tab

guest
You may want to rate the tab now too:
select rating
Please do not post tabs as comments. Select "correction" instead!