Oops, an error
Loading. Please wait.

Take It Out On Me Bass Tab

version 1
version 1

Whole song

Interactive

4,359 views 3 this week
2 commentsread comments
1 2 3 4 5
worth learning
x 3
add to favorites
launch autoscroll
font size
0
reset
guitar tuner
Tab Pro tools
  • play this tab
  • loop segment
  • change instrument
  • show fretboard
  • metronome
×
Best way to learn
"Take It Out On Me"
Autoscroll
slow
fast
+/-
esc
set tempo
stop
Contributor
Difficulty
intermediate
Artist: Bullet For My Valentine
Song: Take It Out On Me
Album: Scream Aim Fire


Tabbed by: Harley Cooper


Tuning: DGCF (Tune down 1 Step)

Chorus:

F|---------------------------------------------| X6
C|---------------------------------------------|
G|---------------------------------------------|
D|-0-----------0-----------0--------------3----|

F|---------------------------------------------|
C|---------------------------------------------|
G|---------------------------------------------|
D|-2-----------2-----------2------------7-5—---|

F|---------------------------------------------|
C|---------------------------------------------|
G|---------------------------------------------|
D|-0-----------0------------------------1-1-1--|


Verse :

F|---------------------------------------------|  X4
C|---------------------------------------------|
G|---------------------------------------------|
D|-0~~~~~~--------------0-------------0--------|


Pre Chorus:

F|---------------------------------------------|
C|---------------------------------------------|
G|---------------------------------------------|
D|---------00000000-----------------0p1s3------|

F|---------------------------------------------|
C|---------------------------------------------|
G|---------------------------------------------|
D|-3~~~~~~-00000000---0p1s3---------00000000---|

Chorus

Verse

Pre Chorus

Chorus

Break + Solo :

 
F|----------------------------------------------|
C|----------------------------------------------| X6
G|-7-7-7-7--3-3-3-3--5-5-5-5-5-5-5-5------------|
D|----------------------------------------------|


During end part of Solo 1:

F|-------------------------------------------------------------------—-|  X2
C|---------------------------------------------------------------------|
G|------------------3-3-3-3-3-3-3-3--5-5-5-5-5-5-5-5--5-5-5-5-5-5-5-5--|
D|-0-0-0-0-0-0-0-0-----------------------------------------------------|



During Solo 2:

F|----------------------------|  X6
C|----------------------------|
G|----------3~~~~~~--5~~~~~~--|
D|-0~~~~~~--------------------|


During Solo 3:

F|-----------------------------------------------------|
C|-----------------------------------------------------|
G|---------2--------------------3----------------------|
D|-0--------------3------5------------7------3------0--|

Verse 2:

F|---------------------------------------------|
C|---------------------------------------------| X2
G|---------------------------------------------|
D|---0------0-----0----------------------3-----|

F|---------------------------------------------|
C|---------------------------------------------|
G|---------------------------------------------|
D|--00000000-------------------0p1s3-----------|

F|---------------------------------------------|
C|---------------------------------------------|
G|---------------------------------------------|
D|-3~~~~~~-00000000---0p1s3---------00000000---|

Chorus


Outro:

F|--------------------------------|
C|--------------------------------|
G|---------------------7-5-7~~~~--|
D|-0~~~~~~~~~~~~~~~~~~------------|



comments
We did not receive enough feedback on this tab! Please rate:
print report bad tab
1 2 3 4 5
2 comments total.
0 reply
crazycram42094 wrote on December 19 2008, 07:57 pm

how do u pull-off from 0 to 1? that doesnt even make sense

0 reply
Freno wrote on June 27 2009, 08:59 am

You pull the 1 and bend very slightly so it still vibrates and gives sound on the open.

This tab is missing the most important bass section where the bass goes:

F:--16--16--16--16--12--12--12--12--14--14--14--14--14--14--14--14
C:14--14--14--14--10--10--10--10--12--12--12--12--12--12--12--12--
G:----------------------------------------------------------------
C:----------------------------------------------------------------

This tab is horrible.

I want to post or [tab]
guest
You may want to rate the tab now too:
select rating
Please do not post tabs as comments. Select "correction" instead!