Oops, an error
Loading. Please wait.

Take It Out On Me Tab

version 1
version 1

Whole song

Interactive

78,576 views 12 this week
19 commentsread comments
1 2 3 4 5
x 25
add to favorites
×
Save as Personal and add changes to this tab that will be seen only by you. Learn more ›
×
You can save this tab as Personal to edit and correct it or add notes. All changes will be seen only by you. Learn more »
save as personal
new!
launch autoscroll
font size
0
reset
how to read this tab
guitar tuner
backing track
0:00
0:00
Autoscroll
slow
fast
+/-
esc
set tempo
stop
Difficulty
intermediate
Tuning: DGCFAD (Guitar Tune down 1 Step)

[Chorus]
D|----------------------------------------------------------|
A|----------------------------------------------------------|
F|----------------------------------------------------------| (x6)
C|----2-0-2-0-----2-0-2-0-----2-0-2-0--x-x-3-2-0------------|
G|-2-----------2-----------2---------------------3-2-0------|
D|-0-----------0-----------0---------------------------3----|

D|-----------------------------------------------------------|
A|-----------------------------------------------------------|
F|-----------------------------------------------------------|
C|----4-2-4-2-----4-2-4-2----4-2-4-2---x-x-5-4---------------|
G|-2-----------2-----------2-------------------7-5-4---------|
D|-2-----------2-----------2--------------------------7-5—---|

D|---------------------------------------------|
A|-----------------------------------5---------|
F|-------------------------3--2--3---5---------|
C|----2-0-2-0-----2-0-2-0--3--2--3---3--3-3-3--|
G|-2-----------2-----------1------------3-3-3--|
D|-0-----------0------------------------1-1-1--|

[Verse]
D|--------------------------------------------------------|
A|--------------------------------------------------------|
F|----------5~~~~~~--7~~~~~~------------------------------|  (x4)
C|-2~~~~~~--5~~~~~~--7~~~~~~-----2-0-2-0-2-----3-2-3-2-3--|
G|-2~~~~~~--3~~~~~~--5~~~~~~--2-------------2-------------|
D|-0~~~~~~--------------------0-------------0-------------|

[Pre-Chorus] 
(Guitar 1)
D|--------------------------------------------------|
A|--------------------------------------------------|
F|-5~~~~~~------------------5-5---------------------|
C|-5~~~~~~------------------5-5--0-5-4-5-7-5-4p5p4--|
G|-3~~~~~~-22222222---------3-3---------------------|
D|---------00000000---0p1s3-------------------------|

D|--------------------------------------------------------------------|
A|--------------------------------------------------------------------|
F|--------------------------5-5---------------------------------------|
C|-5~~~~~~------------------5-5--0-5-4-5-7-5-4-5---0-5-4-5------------|
G|-5~~~~~~-22222222---------3-3-----------------------------22222222--|
D|-3~~~~~~-00000000---0p1s3---------------------------------00000000--|

[Pre-Chorus] 
(Guitar 2)
D|-------------------------------|
A|-------------------------------|
F|-5~~~~~~------------------5-5--|
C|-5~~~~~~------------------5-5--|
G|-3~~~~~~-22222222---------3-3--|
D|---------00000000---0p1s3------|

D|---------------------------------------------------------------------|
A|---------------------------------------------------------------------|
F|--------------------------5-5----------------------------------------|
C|-5~~~~~~------------------5-5--0-9-7-9-10-9-7-9---0-9-7-9------------|
G|-5~~~~~~-22222222---------3-3-----------------------------22222222---|
D|-3~~~~~~-00000000---0p1s3---------------------------------00000000---|

[Chorus]
D|----------------------------------------------------------|
A|----------------------------------------------------------|
F|----------------------------------------------------------| (x6)
C|----2-0-2-0-----2-0-2-0-----2-0-2-0--x-x-3-2-0------------|
G|-2-----------2-----------2---------------------3-2-0------|
D|-0-----------0-----------0---------------------------3----|

D|-----------------------------------------------------------|
A|-----------------------------------------------------------|
F|-----------------------------------------------------------|
C|----4-2-4-2-----4-2-4-2----4-2-4-2---x-x-5-4---------------|
G|-2-----------2-----------2-------------------7-5-4---------|
D|-2-----------2-----------2--------------------------7-5—---|

D|---------------------------------------------|
A|-----------------------------------5---------|
F|-------------------------3--2--3---5---------|
C|----2-0-2-0-----2-0-2-0--3--2--3---3--3-3-3--|
G|-2-----------2-----------1------------3-3-3--|
D|-0-----------0------------------------1-1-1--|

[Verse]
D|--------------------------------------------------------|
A|--------------------------------------------------------|
F|----------5~~~~~~--7~~~~~~------------------------------|  (x4)
C|-2~~~~~~--5~~~~~~--7~~~~~~-----2-0-2-0-2-----3-2-3-2-3--|
G|-2~~~~~~--3~~~~~~--5~~~~~~--2-------------2-------------|
D|-0~~~~~~--------------------0-------------0-------------|

[Pre-Chorus] 
(Guitar 1)
D|--------------------------------------------------|
A|--------------------------------------------------|
F|-5~~~~~~------------------5-5---------------------|
C|-5~~~~~~------------------5-5--0-5-4-5-7-5-4p5p4--|
G|-3~~~~~~-22222222---------3-3---------------------|
D|---------00000000---0p1s3-------------------------|

D|--------------------------------------------------------------------|
A|--------------------------------------------------------------------|
F|--------------------------5-5---------------------------------------|
C|-5~~~~~~------------------5-5--0-5-4-5-7-5-4-5---0-5-4-5------------|
G|-5~~~~~~-22222222---------3-3-----------------------------22222222--|
D|-3~~~~~~-00000000---0p1s3---------------------------------00000000--|

[Pre-Chorus] 
(Guitar 2)
D|-------------------------------|
A|-------------------------------|
F|-5~~~~~~------------------5-5--|
C|-5~~~~~~------------------5-5--|
G|-3~~~~~~-22222222---------3-3--|
D|---------00000000---0p1s3------|

D|---------------------------------------------------------------------|
A|---------------------------------------------------------------------|
F|--------------------------5-5----------------------------------------|
C|-5~~~~~~------------------5-5--0-9-7-9-10-9-7-9---0-9-7-9------------|
G|-5~~~~~~-22222222---------3-3-----------------------------22222222---|
D|-3~~~~~~-00000000---0p1s3---------------------------------00000000---|

[Chorus]
D|----------------------------------------------------------|
A|----------------------------------------------------------|
F|----------------------------------------------------------| (x6)
C|----2-0-2-0-----2-0-2-0-----2-0-2-0--x-x-3-2-0------------|
G|-2-----------2-----------2---------------------3-2-0------|
D|-0-----------0-----------0---------------------------3----|

D|-----------------------------------------------------------|
A|-----------------------------------------------------------|
F|-----------------------------------------------------------|
C|----4-2-4-2-----4-2-4-2----4-2-4-2---x-x-5-4---------------|
G|-2-----------2-----------2-------------------7-5-4---------|
D|-2-----------2-----------2--------------------------7-5—---|

D|---------------------------------------------|
A|-----------------------------------5---------|
F|-------------------------3--2--3---5---------|
C|----2-0-2-0-----2-0-2-0--3--2--3---3--3-3-3--|
G|-2-----------2-----------1------------3-3-3--|
D|-0-----------0------------------------1-1-1--|

[Break, Solo]
(Guitar 1)
D|-------------------------------------------------------------------|
A|-------------------------------------------------------------------|
F|-------------------------------------------------------------------|
C|---9---9---9---9----5---5---5---5----7---7---7---7---7---7---7---7-| (x6)
G|-7---7---7---7----3---3---3---3----5---5---5---5---5---5---5---5---|
D|-------------------------------------------------------------------|

(Guitar 2)
D|---------------------------7---------------7--------------|
A|---------8-------------8-----8---8------8-----8----8---7--|
F|-----9-----9---9-----7---7-----7------7---7------7-----7--|  (x4)
C|---9---9-----9-----------------------------------------5--|
G|-7-----------------5----------------5---------------------|
D|----------------------------------------------------------|

[Solo 1]
D|-------------------------------------------------------------------|
A|----15-13-12-------15-10-------------15-13-12---------15-10--------|
F|-12----------12-14-------11-11---12------------12-14--------11-11--|
C|-------------------------------------------------------------------|
G|-------------------------------------------------------------------|
D|-------------------------------------------------------------------|

D|---------------------------------------------------|
A|----------------------15-13-12-------15-10---------|
F|-12p11-------------------------12-14-------14b-11--|
C|-------12p14p12~~~~~~------------------------------|
G|---------------------------------------------------|
D|---------------------------------------------------|

D|--------------------------------|
A|----15-13-12-------15-10--------|
F|-12----------12-14-------11-11--|
C|--------------------------------|
G|--------------------------------|
D|--------------------------------|

[Guitar Rhythm]
(During end part of Solo 1)
D|---------------------------------------------------------------------|
A|---------------------------------------------------------------------|
F|------------------5-5-5-5-5-5-5-5--7-7-7-7-7-7-7-7--7-7-7-7-7-7-7-7—-|  (x2)
C|-2-2-2-2-2-2-2-2--5-5-5-5-5-5-5-5--7-7-7-7-7-7-7-7--7-7-7-7-7-7-7-7--|
G|-2-2-2-2-2-2-2-2--3-3-3-3-3-3-3-3--5-5-5-5-5-5-5-5--5-5-5-5-5-5-5-5--|
D|-0-0-0-0-0-0-0-0-----------------------------------------------------|

[Solo 2]
D|-----------------------------------------------------|
A|-13-12-----------------------------------------------|
F|-------12-----11b-9------12-14-12-14b-14-12-11-12-9--|  (x6)
C|----------14---------12------------------------------|
G|-----------------------------------------------------|
D|-----------------------------------------------------|

[Guitar Rhythm]
(During Solo 2)
D|----------------------------|
A|----------------------------|
F|----------5~~~~~~--7~~~~~~--|  (x6)
C|-2~~~~~~--5~~~~~~--7~~~~~~--|
G|-2~~~~~~--3~~~~~~--5~~~~~~--|
D|-0~~~~~~--------------------|

[Solo 3]
D|-------------------------------------------------------------------|
A|-------------------------------------------------------------------|
F|-------------------------------------------------------------------|
C|-----------------------------12-14-16----------12-14-16--12-14-16--|
G|----------12-14-15--12-14-15----------12-14-15---------------------|
D|-12-14-15----------------------------------------------------------|

D|-------------------------------------------------------------------|
A|--------------------------------------14-15-17----------14-15-17---|
F|-12-14-16----------12-14-16--12-14-16----------12-14-16------------|
C|----------12-14-16-------------------------------------------------|
G|-------------------------------------------------------------------|
D|-------------------------------------------------------------------|

D|----------14-15-17b--17--15--14------------------|
A|-14-15-17------------------------17~~~~~~~~~~~~--|
F|-------------------------------------------------|
C|-------------------------------------------------|
G|-------------------------------------------------|
D|-------------------------------------------------|

[Guitar Rhythm]
(During Solo 3)
D|-----------------------------------------------------|
A|-----------------------------------------------------|
F|------------------------------5----------------------|
C|-2-------2------5------7------5-----9------5------2--|
G|-2-------2------5------7------3-----9------5------2--|
D|-0--------------3------5------------7------3------0--|

[Verse 2]
(Guitar 1)
D|------------------------------------------------------|
A|------------------------------------------------------|
F|------------------------------------------------------|  (x2)
C|----2-0-2-0-----2-0-2-0-----2-0-2-0--x-x-3-2-0--------|
G|-2-----------2-----------2-------------------3-2-0----|
D|-0-----------0-----------0-------------------------3—-|

D|-----------------------------------------------------------|
A|-----------------------------------------------------------|
F|-5-5-5-5-5-5-5-5-------------------5-5---------------------|
C|-5-5-5-5-5-5-5-5-------------------5-5--0-5-4-5-7-5-4p5p4--|
G|-3-3-3-3-3-3-3-3--22222222---------3-3---------------------|
D|------------------00000000---0p1s3-------------------------|

D|--------------------------------------------------------------------|
A|--------------------------------------------------------------------|
F|--------------------------5-5---------------------------------------|
C|-5~~~~~~------------------5-5--0-5-4-5-7-5-4-5---0-5-4-5------------|
G|-5~~~~~~-22222222---------3-3-----------------------------22222222--|
D|-3~~~~~~-00000000---0p1s3---------------------------------00000000--|

[Verse 2] 
(Guitar 2)
D|----------------|
A|----------------|
F|----------------|
C|-2----2-2----2--|
G|-2----2-2----2--|
D|-0----0-0----0--|

D|-----------------------------------------|
A|-----------------------------------------|
F|-5-5-5-5-5-5-5-5-------------------5-5---|
C|-5-5-5-5-5-5-5-5-------------------5-5---|
G|-3-3-3-3-3-3-3-3--22222222---------3-5---|
D|------------------00000000---0p1s3-------|

D|---------------------------------------------------------------------|
A|---------------------------------------------------------------------|
F|--------------------------5-5----------------------------------------|
C|-5~~~~~~------------------5-5--0-9-7-9-10-9-7-9---0-9-7-9------------|
G|-5~~~~~~-22222222---------3-3-----------------------------22222222---|
D|-3~~~~~~-00000000---0p1s3---------------------------------00000000---|

[Chorus]
D|----------------------------------------------------------|
A|----------------------------------------------------------|
F|----------------------------------------------------------| (x6)
C|----2-0-2-0-----2-0-2-0-----2-0-2-0--x-x-3-2-0------------|
G|-2-----------2-----------2---------------------3-2-0------|
D|-0-----------0-----------0---------------------------3----|

D|-----------------------------------------------------------|
A|-----------------------------------------------------------|
F|-----------------------------------------------------------|
C|----4-2-4-2-----4-2-4-2----4-2-4-2---x-x-5-4---------------|
G|-2-----------2-----------2-------------------7-5-4---------|
D|-2-----------2-----------2--------------------------7-5—---|

D|---------------------------------------------|
A|-----------------------------------5---------|
F|-------------------------3--2--3---5---------|
C|----2-0-2-0-----2-0-2-0--3--2--3---3--3-3-3--|
G|-2-----------2-----------1------------3-3-3--|
D|-0-----------0------------------------1-1-1--|

[Outro]
(Guitar 1)
D|--------------------------------|
A|--------------------------------|
F|---------------------9-7-9~~~~--|
C|-2~~~~~~~~~~~~~~~~~~-9-7-9~~~~--|
G|-2~~~~~~~~~~~~~~~~~~-7-5-7~~~~--|
D|-0~~~~~~~~~~~~~~~~~~------------|

(Guitar 2)
D|-----------------------------------------------------------------------|
A|-13-12------------------------------------17---------------------------|
F|-------12------12-11-9------12-14-12-14b------14-12-11-12---9-7-9~~~~--|
C|----------14------------12----------------------------------9-7-9~~~~--|
G|------------------------------------------------------------7-5-7~~~~--|
D|-----------------------------------------------------------------------|


************************************

| x  Dead note
| ~  Vibrato
| p  Pull-off
| b  Bend

************************************
Suggest correction
comments
print report bad tab
19 comments total. Showing first comments.
+4 reply
marco66666 10 Feb 16, 2008 01:17 AM

Sorry for the chorus it is :

D|---------------------------------------------|
A|-----------------------------------5---------|
F|-------------------------3--2------5---------|
C|----2-0-2-0-----2-0-2-0--3--2--3---3--3-3-3--|
G|-2-----------2-----------1-----3------3-3-3--|
D|-0-----------0------------------------1-1-1--|

+2 reply
petey gunnz 90 Feb 25, 2008 06:01 PM

i swear this is the best song ever and u tabbed it awesome kudos

0 reply
Br3TT 123 Mar 04, 2008 10:45 AM

good good 4 stars.. rate my tabs

guest
Wanna post a correction for this tab? Suggest correction