Oops, an error
Loading. Please wait.

Take It Out On Me Bass Tab

version 3
version 3

Whole song

Interactive

1 view 1 this week
no commentswrite comment
1 2 3 4 5
3 more votes to show rating
add to favorites
launch autoscroll
font size
0
reset
guitar tuner
Autoscroll
slow
fast
+/-
esc
set tempo
stop
Help us to improve Ultimate-Guitar.com Take our survey!
×
Author
Difficulty
Tuning
intermediate
D G C F A D
Artist: Bullet for my valentine
Song: Take it out on me

[Intro]
F|-----------------------------------------------------------------|
C|-----------------------------------------------------------------|
G|-----------------------------------------------------------------|
D|-0---------------0---------------0---------------8\--------------|

F|-----------------------------------------------------------------|
C|-----------------------------------------------------------------|
G|-----------------------------------------------------------------|
D|-0---------------0---------------0---------------0---------------|

F|-----------------------------------------------------------------|
C|-----------------------------------------------------------------|
G|-----------------------------------------------------------------|
D|-----0-------0-------0-------0-------0-------0-------0-------0---|

F|---9-9-9-9----------7-7-7-7------------------------7-7-7-7-7-7-7-|
C|-----------------------------------------------------------------|
G|-7----------------7-----------------3--5-5-5-5-5-5---------------|
D|-----------------------------------------------------------------|

[Main Riff]
F|-----------------------------------------------------------------|
C|-----------------------------------------------------------------|
G|-----------------------------------------------------------------| x2
D|-0-0-0-0-0-0-0-0-0-0-0-0-0-0-0-0-0-0-0-0-0-0-0-0-0-1-1-1-1-1-1-1-|

F|-----------------------------------------------------------------|
C|-----------------------------------------------------------------|
G|-----------------------------------------------------------------|
D|-2-2-2-2-2-2-2-2-2-2-2-2-2-2-2-2-2-2-2-2-2-2-2-2-2-3-3-3-3-3-3-3-|

F|-----------------------------------------------------------------|
C|-----------------------------------------------------------------|
G|---------------------------------1~----0~----------3~------------|
D|-0-0-0-0-0-0-0-0-0-0-0-0-0-0-0-0-------------1~-----------0-0-1~-|

[Verse] x2
F|-------------------------------------------------|
C|-------------------------------------------------|
G|-------------------------3~--3--3--3--3--3--3--3-|
D|-0~--0--0--0--0--0--0--0-------------------------|

F|---------------------------------------------------------|
C|---------------------------------------------------------|
G|-5~--5--5--5--5--5--5--5---------------------------------|
D|-------------------------0-0-0-0-0-0-0-0-0-0-0-0-0-0-0-0-|

F|----------------------------------------------|
C|--------------------------------------5--4--2-|
G|-------------------------3~--3--3--3----------|
D|-0~--0--0--0--0--0--0--0----------------------|

F|---------------------------------------------------------|
C|---------------------------------------------------------|
G|-5~--5--5--5--5--5--5--5---------------------------------|
D|-------------------------0---------------0---------------|

[Pre-Chorus]
F|--------------------------------------------------------|
C|--------------------------------------------------------|
G|-3~--3--3--3--3--3--3--3------------------------------2-|
D|-------------------------0--0-0-0-0-0-0-0-0-0-0-0-2-3---|

F|------------------------------------------------------|
C|--------------5--4--2--0--0-0-0-0-0-0-0-0-0-0-0-0-0-0-|
G|-3~--3--3--3------------------------------------------|
D|------------------------------------------------------|

F|--------------------------------------------------------|
C|--------------------------------------------------------|
G|-3~--3--3--3--3--3--3--3------------------------------2-|
D|-------------------------0--0-0-0-0-0-0-0-0-0-0-0-2-3---|

F|------------------------------------------------------------------|
C|--------------5--4--2--0~--0-0~-0~--0~--0-0~-0~--0~--0-0~-0~------|
G|-3~--3--3--3------------------------------------------------------|
D|--------------------------------------------------------------10\-|

[Chorus]
F|-----------------------------------------------------------------|
C|-----------------------------------------------------------------|
G|-----------------------------------------------------------------| x3
D|-0-0-0-0-0-0-0-0-0-0-0-0-0-0-0-0-0-0-0-0-0-0-0-0-0-1-1-1-1-1-1-1-|

F|-----------------------------------------------------------------|
C|-----------------------------------------------------------------|
G|---------------------------------1~----0~----------3~------------|
D|-0-0-0-0-0-0-0-0-0-0-0-0-0-0-0-0-------------1~-----------0-0-1~-|


[Verse] x2
F|-------------------------------------------------|
C|-------------------------------------------------|
G|-------------------------3~--3--3--3--3--3--3--3-|
D|-0~--0--0--0--0--0--0--0-------------------------|

F|---------------------------------------------------------|
C|---------------------------------------------------------|
G|-5~--5--5--5--5--5--5--5---------------------------------|
D|-------------------------0-0-0-0-0-0-0-0-0-0-0-0-0-0-0-0-|

F|----------------------------------------------|
C|--------------------------------------5--4--2-|
G|-------------------------3~--3--3--3----------|
D|-0~--0--0--0--0--0--0--0----------------------|

F|---------------------------------------------------------|
C|---------------------------------------------------------|
G|-5~--5--5--5--5--5--5--5---------------------------------|
D|-------------------------0---------------0---------------|

[Pre-Chorus]
F|--------------------------------------------------------|
C|--------------------------------------------------------|
G|-3~--3--3--3--3--3--3--3------------------------------2-|
D|-------------------------0--0-0-0-0-0-0-0-0-0-0-0-2-3---|

F|------------------------------------------------------|
C|--------------5--4--2--0--0-0-0-0-0-0-0-0-0-0-0-0-0-0-|
G|-3~--3--3--3------------------------------------------|
D|------------------------------------------------------|

F|--------------------------------------------------------|
C|--------------------------------------------------------|
G|-3~--3--3--3--3--3--3--3------------------------------2-|
D|-------------------------0--0-0-0-0-0-0-0-0-0-0-0-2-3---|

F|------------------------------------------------------------------|
C|--------------5--4--2--0~--0-0~-0~--0~--0-0~-0~--0~--0-0~-0~------|
G|-3~--3--3--3------------------------------------------------------|
D|--------------------------------------------------------------10\-|

[Chorus]
F|-----------------------------------------------------------------|
C|-----------------------------------------------------------------|
G|-----------------------------------------------------------------| x3
D|-0-0-0-0-0-0-0-0-0-0-0-0-0-0-0-0-0-0-0-0-0-0-0-0-0-1-1-1-1-1-1-1-|

F|-----------------------------------------------------------------|
C|-----------------------------------------------------------------|
G|---------------------------------1~----0~----------3~------------|
D|-0-0-0-0-0-0-0-0-0-0-0-0-0-0-0-0-------------1~-----------0-0-1~-|

[Post Chorus]
F|-----------------------------------------------------------------|
C|-----------------------------------------------------------------|
G|-----------------------------------------------------------------|
D|-0~--------------------------------------------------------------|

[Bridge] x3
F|-----16------16------16------16------12------12------12------12-|
C|-14------14------14------14------10------10------10------10-----|
G|----------------------------------------------------------------|
D|----------------------------------------------------------------|

F|-----14------14------14------14------14------14------14------14-|
C|-12------12------12------12------12------12------12------12-----|
G|----------------------------------------------------------------|
D|----------------------------------------------------------------|

F|-----16------16------16------16------12------12------12------12-|
C|-14------14------14------14------10------10------10------10-----|
G|----------------------------------------------------------------|
D|----------------------------------------------------------------|

F|-----14------14------14------14------11-----11------11------11-|
C|-12------12------12------12------0-------0------0-------0------|
G|---------------------------------------------------------------|
D|---------------------------------------------------------------|

[Pre-Solo] x2
F|------------------------------------------------|
C|------------------------------------------------|
G|-7--7--7--7--7--7--7--7--3--3--3--3--3--3--3--3-|
D|------------------------------------------------|

F|------------------------------------------------|
C|------------------------------------------------|
G|-5--5--5--5--5--5--5--5--5--5--5--5--5--5--5--5-|
D|------------------------------------------------|

[Guitar Solo] 
F|------------------------------------------------|
C|------------------------------------------------|
G|-------------------------3--3--3--3--3--3--3--3-|
D|-0--0--0--0--0--0--0--0-------------------------|

F|------------------------------------------------|
C|------------------------------------------------|
G|-5--5--5--5--5--5--5--5--5--5--5--5--5--5--5--5-|
D|------------------------------------------------|

|-------------------------------------------------|
C|------------------------------------------------|
G|-7--7--7--7--7--7--7--7--3--3--3--3--3--3--3--3-|
D|------------------------------------------------|

F|------------------------------------------------|
C|------------------------------------------------|
G|-5--5--5--5--5--5--5--5--5--5--5--5--5--5--5--5-|
D|------------------------------------------------|

F|------------------------------------------------|
C|------------------------------------------------|
G|-------------------------3--3--3--3--3--3--3--3-|
D|-0--0--0--0--0--0--0--0-------------------------|

F|------------------------------------------------|
C|------------------------------------------------|
G|-5--5--5--5--5--5--5--5--5--5--5--5--5--5--5--5-|
D|------------------------------------------------|

|-------------------------------------------------|
C|------------------------------------------------|
G|-7--7--7--7--7--7--7--7--3--3--3--3--3--3--3--3-|
D|------------------------------------------------|

F|------------------------------------------------|
C|------------------------------------------------|
G|-5--5--5--5--5--5--5--5--5--5--5--5--5--5--5--5-|
D|------------------------------------------------|

F|------------------------------------------------|
C|------------------------------------------------|
G|-------------------------3--3--3--3--3--3--3--3-|
D|-0--0--0--0--0--0--0--0-------------------------|

F|------------------------------------------------|
C|------------------------------------------------|
G|-5--5--5--5--5--5--5--5--5--5--5--5--5--5--5--5-|
D|------------------------------------------------|

|-------------------------------------------------|
C|------------------------------------------------|
G|-7--7--7--7--7--7--7--7--3--3--3--3--3--3--3--3-|
D|------------------------------------------------|

F|------------------------------------------------|
C|------------------------------------------------|
G|-5--5--5--5--5--5--5--5--5--5--3--3--2--2--0--0-|
D|------------------------------------------------|

F|----------------------------------------------|
C|----------------------------------------------|
G|----------------5~---3~------2~---------------|
D|-0~---2~---3~---------------------3~---0------|

[Pause]

[Interlude]
F|-----------------------------------------------------------------|
C|-----------------------------------------------------------------|
G|-----------------------------------------------------------------|
D|-0--------------0-0--------------0-------------------------------|

[Final Pre-Chorus]
F|--------------------------------------------------------|
C|--------------------------------------------------------|
G|-3----------------------------------------------------2-|
D|-------------------------0--0-0-0-0-0-0-0-0-0-0-0-2-3---|

F|------------------------------------------------------|
C|--------------5--4--2--0--0-0-0-0-0-0-0-0-0-0-0-0-0-0-|
G|-3~--3--3--3------------------------------------------|
D|------------------------------------------------------|

F|--------------------------------------------------------|
C|--------------------------------------------------------|
G|-3~--3--3--3--3--3--3--3------------------------------2-|
D|-------------------------0--0-0-0-0-0-0-0-0-0-0-0-2-3---|

F|------------------------------------------------------------------|
C|--------------5--4--2--0~--0-0~-0~--0~--0-0~-0~--0~--0-0~-0~------|
G|-3~--3--3--3------------------------------------------------------|
D|--------------------------------------------------------------10\-|

[Final Chorus]
F|-----------------------------------------------------------------|
C|-----------------------------------------------------------------|
G|-----------------------------------------------------------------| x2
D|-0-0-0-0-0-0-0-0-0-0-0-0-0-0-0-0-0-0-0-0-0-0-0-0-0-1-1-1-1-1-1-1-|

F|-----------------------------------------------------------------|
C|-----------------------------------------------------------------|
G|-----------------------------------------------------------------|
D|-2-2-2-2-2-2-2-2-2-2-2-2-2-2-2-2-2-2-2-2-2-2-2-2-2-3-3-3-3-3-3-3-|

F|-----------------------------------------------------------------|
C|-----------------------------------------------------------------|
G|---------------------------------1~----0~----------3~------------|
D|-0-0-0-0-0-0-0-0-0-0-0-0-0-0-0-0-------------1~-----------0-0-1~-|

F|-----------------------------------------------------------------|
C|-----------------------------------------------------------------|
G|-----7~-------------------------------------------------7--5--7\-|
D|-0---0~----------------------------------------------------------|


************************************

| \  Slide down
| ~  Vibrato

************************************
Suggest correction
Give kudos to tab author, rate the tab!
1 2 3 4 5
comments
print report bad tab
guest
You may want to rate the tab now too:
select rating
Wanna post a correction for this tab? Suggest correction