Oops, an error
Loading. Please wait.

Tears Dont Fall Acoustic Tab

version 1
version 1

Solo

65,874 views 16 this week
7 commentsread comments
1 2 3 4 5
accurate
x 12
add to favorites
launch autoscroll
font size
0
reset
how to read this tab
guitar tuner
Tab Pro tools
  • play this tab
  • loop segment
  • change instrument
  • show fretboard
  • metronome
×
Best way to learn
"Tears Dont Fall Acoustic"
Autoscroll
slow
fast
+/-
esc
set tempo
stop
Contributor
Tabbers playing skills
intermediate +
Thanks to Hjorturh for half the tab
I needed this for my band so i did my absolute best to figure it out even though my ear
rubbish and i generally can't tab, take what you want from it if its right and make
as you see fit, but to me it sounds alright =] There are no timings because i only know 
to do them in guitar pro.

Drop C

|--------------------------------------------------------------------------|
|--------------------------------------------------8--6-5-5--6----5-----5--|
|--------------5h--7-----5----L--------------------------------------7-----|
|-------5h--7---------7----------7------------L----------------------------|
|--------------------------------------------------------------------------|
|--------------------------------------------------------------------------|


|---------------------------------------------------------------------|
|--L------------------------------------------------------------------|
|-----7--5--7----5--4------------------------------------------------|
|---------------------------/7-------/9--------/10---------/5---------|
|---------------------------------------------------------------------|
|---------------------------------------------------------------------|


|---------------------------------------------------------|
|-------------------------10----12----13----8-------------|
|---------------------------------------------------------|
|---2h4p2-------------------------------------------------|
|------------5-----2--------------------------------------|
|---------------------------------------------------------|


|--12----------12----------12--------10----------10----------10------|
|------13----------13----------13--------12----------12----------12--|
|----------14----------14--------------------12----------12----------|
|--------------------------------------------------------------------|
|--------------------------------------------------------------------|
|--------------------------------------------------------------------|


|-----------------------------------------------------------------------|
|-----------------------------------------------8--6-5-5--6----5-----5--|
|-----------------------------------------------------------------7-----|
|----/7--------9----------10--------------------------------------------|
|-----------------------------------10----------------------------------|
|-----------------------------------------------------------------------|
comments
print report bad tab
7 comments total. Showing first comments.
0 reply
hahahaha666 wrote on April 21 2008, 05:17 am

Nice attempt, a little off at one point but generally it makes a lot more sense than the other tab for the version I have anyway, at least I can play it and it sounds about right 4*

0 reply
tonyloaf23 wrote on September 16 2008, 09:03 pm

nice job on the solo! way better than the other.

0 reply
mageXsessho wrote on December 27 2008, 11:37 pm

well i mostly agree.

i do it different but most the notes are in actuality the same

4 and 1/2 stars, but ill give you five.

I want to post or [tab]
guest
You may want to rate the tab now too:
select rating
Please do not post tabs as comments. Select "correction" instead!