Oops, an error
Loading. Please wait.

Tears Dont Fall Tab

version 1
355,882 views 252 this week
32 commentsread comments
1 2 3 4 5
accurate
x 35
add to favorites
launch autoscroll
font size
0
reset
how to read this tab
guitar tuner
Autoscroll
slow
fast
+/-
esc
set tempo
stop
Help us to improve Ultimate-Guitar.com Take our survey!
×
Author
Difficulty
Tuning
intermediate
C G C F A D
Duration Legend
---------------
W - whole
H - half
Q - quarter
E - 8th
S - 16th
T - 32nd
X - 64th
. - note dotted
|-n-|  - n-tuplets


Tablature Legend
----------------
L - tied note
x - dead note
g - grace note
(n) - ghost note
> - accentuded note
NH - natural harmonic
AH - artificial harmonic
TH - tapped harmonic
SH - semi harmonic
PH - pitch harmonic
h - hammer on
p - pull off
b - bend
br - bendRelease
pb - preBend
pbr - preBendRelease
brb - bendReleaseBend
\n/ - tremolo bar dip
\n - tremolo bar dive
-/n - tremolo bar Release up
/n\ - tremolo bar inverted dip
/n - tremolo bar return
-\n - tremolo bar Release down
S - shift slide
s - legato slide
/ -  slide into from below or out of upwards
\ -  slide into from above or out of downwards
~ - vibrato
W - wide vibrato
tr - trill
TP - tremolo picking
T - tapping
S - slap
P - pop
< - fade in
^ - brush up
v - brush down


Matt Tuck plays this.

     ^  v  ^  v  ^  v  ^  v     ^  v  ^  v  ^  v  ^  v   
     E  E  E  E  E  E  E  E     E  E  E  E  E  E  E  E   
D|--------------------------|--------------------------|
A|--------------6--6--6--6--|--5--5--5--5--6--6--6--6--|
F|--------------5--5--5--5--|--5--5--5--5--5--5--5--5--|
C|--3--3--3--3--3--3--3--3--|--3--3--3--3--3--3--3--3--|
G|--3--3--3--3--3--3--3--3--|--3--3--3--3--3--3--3--3--|
C|--3--3--3--3--------------|--------------------------|


    ^      v  ^  v  ^  v  ^        ^    ^  v  ^  v  ^   
    E   E  E  E  E  E  E  E     E  Q    E  E  E  E  E   
D|---------------------------|-------------------------|
A|---------------8--8--8--8--|--L--8----8--8--8--8--8--|
F|---------------7--7--7--7--|--L--7----7--7--7--7--7--|
C|--3s--5--5--5--5--5--5--5--|--L--5----5--5--5--5--5--|
G|--3s--5--5--5--5--5--5--5--|--L--5----5--5--5--5--5--|
C|--3s--5--5--5--------------|-------------------------|


    ^  v  ^  v  ^  v  ^  v     ^  v  ^  v  ^  v  ^  v   
    E  E  E  E  E  E  E  E     E  E  E  E  E  E  E  E   
D|--------------------------|--------------------------|
A|--------------6--6--6--6--|--5--5--5--5--6--6--6--6--|
F|--------------5--5--5--5--|--5--5--5--5--5--5--5--5--|
C|--3--3--3--3--3--3--3--3--|--3--3--3--3--3--3--3--3--|
G|--3--3--3--3--3--3--3--3--|--3--3--3--3--3--3--3--3--|
C|--3--3--3--3--------------|--------------------------|


    ^      v  ^  v  ^  v  ^     v   ^   v   ^  v  ^  v  ^   
    E   E  E  E  E  E  E  E     E   E   E   E  E  E  E  E   
D|---------------------------|-----------------------------|
A|---------------8--8--8--8--|--x--10--10--10--x--8--8--8--|
F|---------------7--7--7--7--|--x---9---9---9--x--7--7--7--|
C|--3s--5--5--5--5--5--5--5--|--x---7---7---7--x--5--5--5--|
G|--3s--5--5--5--5--5--5--5--|--x---7---7---7--x--5--5--5--|
C|--3s--5--5--5--------------|-----------------------------|


    ^  v  ^  v  ^  v  ^  v     ^  v  ^  v  ^  v  ^  v   
    E  E  E  E  E  E  E  E     E  E  E  E  E  E  E  E   
D|--------------------------|--------------------------|
A|--------------6--6--6--6--|--5--5--5--5--6--6--6--6--|
F|--------------5--5--5--5--|--5--5--5--5--5--5--5--5--|
C|--3--3--3--3--3--3--3--3--|--3--3--3--3--3--3--3--3--|
G|--3--3--3--3--3--3--3--3--|--3--3--3--3--3--3--3--3--|
C|--3--3--3--3--------------|--------------------------|


    ^      v  ^  v  ^  v  ^        ^    ^  v  ^  v  ^   
    E   E  E  E  E  E  E  E     E  Q    E  E  E  E  E   
D|---------------------------|-------------------------|
A|---------------8--8--8--8--|--L--8----8--8--8--8--8--|
F|---------------7--7--7--7--|--L--7----7--7--7--7--7--|
C|--3s--5--5--5--5--5--5--5--|--L--5----5--5--5--5--5--|
G|--3s--5--5--5--5--5--5--5--|-----5----5--5--5--5--5--|
C|--3s--5--5--5--------------|-------------------------|


    ^  v  ^  v  ^  v  ^  v     ^  v  ^  v  ^  v  ^  v   
    E  E  E  E  E  E  E  E     E  E  E  E  E  E  E  E   
D|--------------------------|--------------------------|
A|--------------6--6--6--6--|--5--5--5--5--6--6--6--6--|
F|--------------5--5--5--5--|--5--5--5--5--5--5--5--5--|
C|--3--3--3--3--3--3--3--3--|--3--3--3--3--3--3--3--3--|
G|--3--3--3--3--3--3--3--3--|--3--3--3--3--3--3--3--3--|
C|--3--3--3--3--------------|--------------------------|


    ^      v  ^  v  ^  v  ^     v   ^   v   ^  v  ^  v  ^   
    E   E  E  E  E  E  E  E     E   E   E   E  E  E  E  E   
D|---------------------------|-----------------------------|
A|---------------8--8--8--8--|--x--10--10--10--x--8--8--8--|
F|---------------7--7--7--7--|--x---9---9---9--x--7--7--7--|
C|--3s--5--5--5--5--5--5--5--|--x---7---7---7--x--5--5--5--|
G|--3s--5--5--5--5--5--5--5--|--x---7---7---7--x--5--5--5--|
C|--3s--5--5--5--------------|-----------------------------|

 
    PM PM PM PM PM PM PM PM    PM PM PM PM PM PM PM PM    ^    v  v    ^  v  v   
    E  E  E  E  E  E  E  E     E  E  E  E  E  E  E  E     Q    E  Q    E  E  E   
D|--------------------------|--------------------------|--0----0--0----0--0--0--|
A|--------------------------|--------------------------|--1----1--1----1--1--1--|
F|--------------------------|--------------------------|--2----2--2----2--2--2--|
C|--2--2--2--2--2--2--2--2--|--2--2--2--2--2--2--2--2--|--2----2--2----2--2--2--|
G|--0--0--0--0--0--0--0--0--|--0--0--0--0--0--0--0--0--|--0----0--0----0--0--0--|
C|--------------------------|--------------------------|------------------------|


    ^  v  ^  v  ^  v  ^     ^    v  v    ^  v  v     ^    v  v    ^  v  v   
    E  E  E  E  E  E  E  E     Q    E  Q    E  E  E     Q    E  Q    E  E  E   
D|--L--0--0--0--0--0--0--0--|--0----0--0----0--0--0--|--0----0--0----0--0--0--|
A|--L--1--1--1--1--1--1--1--|--1----1--1----1--1--1--|--3----3--3----3--3--3--|
F|--L--2--2--2--2--2--2--2--|--2----2--2----2--2--2--|--4----4--4----4--4--4--|
C|--L--2--2--2--2--2--2--2--|--3----3--3----3--3--3--|--5----5--5----5--5--5--|
G|--L--0--0--0--0--0--0--0--|------------------------|------------------------|
C|--------------------------|------------------------|------------------------|


    ^    v  v    ^  v  v        ^  v  ^  v  ^  v  ^     ^    v  v    ^  v  v   
    Q    E  Q    E  E  E     E  E  E  E  E  E  E  E     Q    E  Q    E  E  E   
D|--0----0--0----0--0--0--|--L--0--0--0--0--0--0--0--|--0----0--0----0--0--0--|
A|--1----1--1----1--1--1--|--L--1--1--1--1--1--1--1--|--1----1--1----1--1--1--|
F|--2----2--2----2--2--2--|--L--2--2--2--2--2--2--2--|--2----2--2----2--2--2--|
C|--2----2--2----2--2--2--|--L--2--2--2--2--2--2--2--|--3----3--3----3--3--3--|
G|--0----0--0----0--0--0--|--L--0--0--0--0--0--0--0--|------------------------|
C|------------------------|--------------------------|------------------------|


    ^                                                                       
    W                   E  E  E  E  E  E  E  E     E  E  E  E  E  E  E  E   
D|--0----------------|--------------0-----------|--------------0-----------|
A|--3----------------|--------1--------1-----1--|--------1--------1-----1--|
F|--4----------------|-----2-----2--------2-----|-----2-----2--------2-----|
C|--5----------------|--2-----------------------|--2-----------------------|
G|-------------------|--------------------------|--------------------------|
C|-------------------|--------------------------|--------------------------|


  E  E  E  E  E  E  E  E     E  E  E  E  E  E  E  E   
D|--------------0-----------|--------------0-----------|
A|--------1--------1-----1--|--------3--------3-----3--|
F|-----2-----2--------2-----|-----4-----4--------4-----|
C|--3-----------------------|--5-----------------------|
G|--------------------------|--------------------------|
C|--------------------------|--------------------------|


  E  E  E  E  E  E  E  E     E  E  E  E  E  E  E  E   
D|--------------0-----------|--------------0-----------|
A|--------1--------1-----1--|--------1--------1-----1--|
F|-----2-----2--------2-----|-----2-----2--------2-----|
C|--2-----------------------|--2-----------------------|
G|--------------------------|--------------------------|
C|--------------------------|--------------------------|


    E  E  E  E  E  E  E  E     E  E  E  E  E  E  E  E   
D|--------------0-----------|--------------0-----------|
A|--------1--------1-----1--|--------3--------3-----3--|
F|-----2-----2--------2-----|-----4-----4--------4-----|
C|--3-----------------------|--5-----------------------|
G|--------------------------|--------------------------|
C|--------------------------|--------------------------|


    E  E  E  E  E  E  E  E     E  E  E  E  E  E  E  E   
D|--------------0-----------|--------------0-----------|
A|--------1--------1-----1--|--------1--------1-----1--|
F|-----2-----2--------2-----|-----2-----2--------2-----|
C|--2-----------------------|--2-----------------------|
G|--------------------------|--------------------------|
C|--------------------------|--------------------------|


    E  E  E  E  E  E  E  E     E  E  E  E  E  E  E  E   
D|--------------0-----------|--------------0-----------|
A|--------1--------1-----1--|--------3--------3-----3--|
F|-----2-----2--------2-----|-----4-----4--------4-----|
C|--3-----------------------|--5-----------------------|
G|--------------------------|--------------------------|
C|--------------------------|--------------------------|


    E  E  E  E  E  E  E  E     E  E  E  E  E  E  E  E   
D|--------------0-----------|--------------0-----------|
A|--------1--------1-----1--|--------1--------1-----1--|
F|-----2-----2--------2-----|-----2-----2--------2-----|
C|--2-----------------------|--2-----------------------|
G|--------------------------|--------------------------|
C|--------------------------|--------------------------|


  E  E  E  E  E  E  E  E     E  E  E  E  E  E  E  E   
D|--------------0-----------|--------------0-----------|
A|--------1--------1-----1--|--------3--------3-----3--|
F|-----2-----2--------2-----|-----4-----4--------4-----|
C|--3-----------------------|--5-----------------------|
G|--------------------------|--------------------------|
C|--------------------------|--------------------------|


    ^  v  ^  v  ^  v  ^  v     ^  v  ^  v  ^  v  ^  v   
    E  E  E  E  E  E  E  E     E  E  E  E  E  E  E  E   
D|--------------------------|--------------------------|
A|--------------6--6--6--6--|--5--5--5--5--6--6--6--6--|
F|--------------5--5--5--5--|--5--5--5--5--5--5--5--5--|
C|--3--3--3--3--3--3--3--3--|--3--3--3--3--3--3--3--3--|
G|--3--3--3--3--3--3--3--3--|--3--3--3--3--3--3--3--3--|
C|--3--3--3--3--------------|--------------------------|


    ^      v  ^  v  ^  v  ^        ^    ^  v  ^  v  ^   
    E   E  E  E  E  E  E  E     E  Q    E  E  E  E  E   
D|---------------------------|-------------------------|
A|---------------8--8--8--8--|--L--8----8--8--8--8--8--|
F|---------------7--7--7--7--|--L--7----7--7--7--7--7--|
C|--3s--5--5--5--5--5--5--5--|--L--5----5--5--5--5--5--|
G|--3s--5--5--5--5--5--5--5--|--L--5----5--5--5--5--5--|
C|--3s--5--5--5--------------|-------------------------|


    ^  v  ^  v  ^  v  ^  v     ^  v  ^  v  ^  v  ^  v   
    E  E  E  E  E  E  E  E     E  E  E  E  E  E  E  E   
D|--------------------------|--------------------------|
A|--------------6--6--6--6--|--5--5--5--5--6--6--6--6--|
F|--------------5--5--5--5--|--5--5--5--5--5--5--5--5--|
C|--3--3--3--3--3--3--3--3--|--3--3--3--3--3--3--3--3--|
G|--3--3--3--3--3--3--3--3--|--3--3--3--3--3--3--3--3--|
C|--3--3--3--3--------------|--------------------------|


    ^      v  ^  v  ^  v  ^     v   ^   v   ^  v  ^  v  ^   
    E   E  E  E  E  E  E  E     E   E   E   E  E  E  E  E   
D|---------------------------|-----------------------------|
A|---------------8--8--8--8--|--x--10--10--10--x--8--8--8--|
F|---------------7--7--7--7--|--x---9---9---9--x--7--7--7--|
C|--3s--5--5--5--5--5--5--5--|--x---7---7---7--x--5--5--5--|
G|--3s--5--5--5--5--5--5--5--|--x---7---7---7--x--5--5--5--|
C|--3s--5--5--5--------------|-----------------------------|


    ^  v  ^  v  ^  v  ^  v     ^  v  ^  v  ^  v  ^  v   
    E  E  E  E  E  E  E  E     E  E  E  E  E  E  E  E   
D|--------------------------|--------------------------|
A|--------------6--6--6--6--|--5--5--5--5--6--6--6--6--|
F|--------------5--5--5--5--|--5--5--5--5--5--5--5--5--|
C|--3--3--3--3--3--3--3--3--|--3--3--3--3--3--3--3--3--|
G|--3--3--3--3--3--3--3--3--|--3--3--3--3--3--3--3--3--|
C|--3--3--3--3--------------|--------------------------|


    ^      v  ^  v  ^  v  ^        ^    ^  v  ^  v  ^   
    E   E  E  E  E  E  E  E     E  Q    E  E  E  E  E   
D|---------------------------|-------------------------|
A|---------------8--8--8--8--|--L--8----8--8--8--8--8--|
F|---------------7--7--7--7--|--L--7----7--7--7--7--7--|
C|--3s--5--5--5--5--5--5--5--|--L--5----5--5--5--5--5--|
G|--3s--5--5--5--5--5--5--5--|-----5----5--5--5--5--5--|
C|--3s--5--5--5--------------|-------------------------|


    ^  v  ^  v  ^  v  ^  v     ^  v  ^  v  ^  v  ^  v   
    E  E  E  E  E  E  E  E     E  E  E  E  E  E  E  E   
D|--------------------------|--------------------------|
A|--------------6--6--6--6--|--5--5--5--5--6--6--6--6--|
F|--------------5--5--5--5--|--5--5--5--5--5--5--5--5--|
C|--3--3--3--3--3--3--3--3--|--3--3--3--3--3--3--3--3--|
G|--3--3--3--3--3--3--3--3--|--3--3--3--3--3--3--3--3--|
C|--3--3--3--3--------------|--------------------------|


    ^      v  ^  v  ^  v  ^     v   ^   v   ^  v  ^  v  ^   
    E   E  E  E  E  E  E  E     E   E   E   E  E  E  E  E   
D|---------------------------|-----------------------------|
A|---------------8--8--8--8--|--x--10--10--10--x--8--8--8--|
F|---------------7--7--7--7--|--x---9---9---9--x--7--7--7--|
C|--3s--5--5--5--5--5--5--5--|--x---7---7---7--x--5--5--5--|
G|--3s--5--5--5--5--5--5--5--|--x---7---7---7--x--5--5--5--|
C|--3s--5--5--5--------------|-----------------------------|


                                   W                                           
    Q    E   E  E   E  E  E     E  H.           E     E  S S E  Q    E  E  E   
D|---------------------------|---------------------|--------------------------|
A|---------------------------|---------------------|--8--6-5-5--6----5-----5--|
F|--------------5h--7-----5--|--L------------------|--------------------7-----|
C|-------5h--7---------7-----|-----7------------L--|--------------------------|
G|---------------------------|---------------------|--------------------------|
C|---------------------------|---------------------|--------------------------|


    E  E  E  Q    E  Q       Q.     E  E  E  E  E     E  H.           E   
D|------------------------|------------------------|---------------------|
A|--L---------------------|------------------------|---------------------|
F|-----7--5--7----5--4----|--2------5--4--5--4--5--|--4--5---------------|
C|------------------------|------------------------|------------------5--|
G|------------------------|------------------------|---------------------|
C|------------------------|------------------------|---------------------|


                                                    W         W         
    H.           S S E     H.           S  E.       H         H         
D|----------------------|----------------------|-----------------------|
A|----------------------|----------------------|-----------------------|
F|----------------------|----------------------|-----------------------|
C|--2------------2-4-5--|----------------------|-------------/9--------|
G|----------------------|--5------------5s-2---|--/10------------------|
C|----------------------|----------------------|-----------------------|


      W                                                    
      W                    E   E   E   E   E   E   E   E   
D|---------------------|--12----------12----------12------|
A|---------------------|------13----------13----------13--|
F|---------------------|----------14----------14----------|
C|--/10----------------|----------------------------------|
G|---------------------|----------------------------------|
C|---------------------|----------------------------------|


                                        W        W         
     E   E   E   E   E   E   E   E      H        H         
D|--10----------10----------10------|---------------------|
A|------12----------12----------12--|---------------------|
F|----------12----------12----------|---------------------|
C|----------------------------------|--/7--------9--------|
G|----------------------------------|---------------------|
C|----------------------------------|---------------------|


     W         W                                              
     H         Q.      S  S     E   S  S E   Q     E  E   E   
D|--------------------------|--------------------------------|
A|--------------------------|--------------------------------|
F|--------------------10-11-|--13--11-10-8--11----10--8--10--|
C|--10----------------------|--------------------------------|
G|------------10------------|--------------------------------|
C|--------------------------|--------------------------------|


    E  E  E  Q    E  Q       E  E  E  E  E  E  E  E     E  E  E  E  E  E  E  E   
D|------------------------|--------------0-----------|--------------0-----------|
A|------------------------|--------1--------1-----1--|--------1--------1-----1--|
F|--L--8--7--8----7--5----|-----2-----2--------2-----|-----2-----2--------2-----|
C|------------------------|--2-----------------------|--2-----------------------|
G|------------------------|--------------------------|--------------------------|
C|------------------------|--------------------------|--------------------------|


    E  E  E  E  E  E  E  E     E  E  E  E  E  E  E  E   
D|--------------0-----------|--------------0-----------|
A|--------1--------1-----1--|--------3--------3-----3--|
F|-----2-----2--------2-----|-----4-----4--------4-----|
C|--3-----------------------|--5-----------------------|
G|--------------------------|--------------------------|
C|--------------------------|--------------------------|


    E  E  E  E  E  E  E  E     E  E  E  E  E  E  E  E   
D|--------------0-----------|--------------0-----------|
A|--------1--------1-----1--|--------1--------1-----1--|
F|-----2-----2--------2-----|-----2-----2--------2-----|
C|--2-----------------------|--2-----------------------|
G|--------------------------|--------------------------|
C|--------------------------|--------------------------|


    E  E  E  E  E  E  E  E     E  E  E  E  E  E  E  E   
D|--------------0-----------|--------------0-----------|
A|--------1--------1-----1--|--------3--------3-----3--|
F|-----2-----2--------2-----|-----4-----4--------4-----|
C|--3-----------------------|--5-----------------------|
G|--------------------------|--------------------------|
C|--------------------------|--------------------------|


    E  E  E  E  E  E  E  E     E  E  E  E  E  E  E  E   
D|--------------0-----------|--------------0-----------|
A|--------1--------1-----1--|--------1--------1-----1--|
F|-----2-----2--------2-----|-----2-----2--------2-----|
C|--2-----------------------|--2-----------------------|
G|--------------------------|--------------------------|
C|--------------------------|--------------------------|


    E  E  E  E  E  E  E  E     E  E  E  E  E  E  E  E   
D|--------------0-----------|--------------0-----------|
A|--------1--------1-----1--|--------3--------3-----3--|
F|-----2-----2--------2-----|-----4-----4--------4-----|
C|--3-----------------------|--5-----------------------|
G|--------------------------|--------------------------|
C|--------------------------|--------------------------|


    E  E  E  E  E  E  E  E     E  E  E  E  E  E  E  E   
D|--------------0-----------|--------------0-----------|
A|--------1--------1-----1--|--------1--------1-----1--|
F|-----2-----2--------2-----|-----2-----2--------2-----|
C|--2-----------------------|--2-----------------------|
G|--------------------------|--------------------------|
C|--------------------------|--------------------------|


    E  E  E  E  E  E  E  E     E  E  E  E  E  E  E  E   
D|--------------0-----------|--------------0-----------|
A|--------1--------1-----1--|--------3--------3-----3--|
F|-----2-----2--------2-----|-----4-----4--------4-----|
C|--3-----------------------|--5-----------------------|
G|--------------------------|--------------------------|
C|--------------------------|--------------------------|


    ^  v  ^  v  ^  v  ^  v     ^  v  ^  v  ^  v  ^  v   
    E  E  E  E  E  E  E  E     E  E  E  E  E  E  E  E   
D|--------------------------|--------------------------|
A|--------------6--6--6--6--|--5--5--5--5--6--6--6--6--|
F|--------------5--5--5--5--|--5--5--5--5--5--5--5--5--|
C|--3--3--3--3--3--3--3--3--|--3--3--3--3--3--3--3--3--|
G|--3--3--3--3--3--3--3--3--|--3--3--3--3--3--3--3--3--|
C|--3--3--3--3--------------|--------------------------|


    ^      v  ^  v  ^  v  ^        ^    ^  v  ^  v  ^   
    E   E  E  E  E  E  E  E     E  Q    E  E  E  E  E   
D|---------------------------|-------------------------|
A|---------------8--8--8--8--|--L--8----8--8--8--8--8--|
F|---------------7--7--7--7--|--L--7----7--7--7--7--7--|
C|--3s--5--5--5--5--5--5--5--|--L--5----5--5--5--5--5--|
G|--3s--5--5--5--5--5--5--5--|--L--5----5--5--5--5--5--|
C|--3s--5--5--5--------------|-------------------------|


    ^  v  ^  v  ^  v  ^  v     ^  v  ^  v  ^  v  ^  v   
    E  E  E  E  E  E  E  E     E  E  E  E  E  E  E  E   
D|--------------------------|--------------------------|
A|--------------6--6--6--6--|--5--5--5--5--6--6--6--6--|
F|--------------5--5--5--5--|--5--5--5--5--5--5--5--5--|
C|--3--3--3--3--3--3--3--3--|--3--3--3--3--3--3--3--3--|
G|--3--3--3--3--3--3--3--3--|--3--3--3--3--3--3--3--3--|
C|--3--3--3--3--------------|--------------------------|


    ^      v  ^  v  ^  v  ^     v   ^   v   ^  v  ^  v  ^   
    E   E  E  E  E  E  E  E     E   E   E   E  E  E  E  E   
D|---------------------------|-----------------------------|
A|---------------8--8--8--8--|--x--10--10--10--x--8--8--8--|
F|---------------7--7--7--7--|--x---9---9---9--x--7--7--7--|
C|--3s--5--5--5--5--5--5--5--|--x---7---7---7--x--5--5--5--|
G|--3s--5--5--5--5--5--5--5--|--x---7---7---7--x--5--5--5--|
C|--3s--5--5--5--------------|-----------------------------|


    ^  v  ^  v  ^  v  ^  v     ^  v  ^  v  ^  v  ^  v   
    E  E  E  E  E  E  E  E     E  E  E  E  E  E  E  E   
D|--------------------------|--------------------------|
A|--------------6--6--6--6--|--5--5--5--5--6--6--6--6--|
F|--------------5--5--5--5--|--5--5--5--5--5--5--5--5--|
C|--3--3--3--3--3--3--3--3--|--3--3--3--3--3--3--3--3--|
G|--3--3--3--3--3--3--3--3--|--3--3--3--3--3--3--3--3--|
C|--3--3--3--3--------------|--------------------------|


    ^      v  ^  v  ^  v  ^        ^    ^  v  ^  v  ^   
    E   E  E  E  E  E  E  E     E  Q    E  E  E  E  E   
D|---------------------------|-------------------------|
A|---------------8--8--8--8--|--L--8----8--8--8--8--8--|
F|---------------7--7--7--7--|--L--7----7--7--7--7--7--|
C|--3s--5--5--5--5--5--5--5--|--L--5----5--5--5--5--5--|
G|--3s--5--5--5--5--5--5--5--|-----5----5--5--5--5--5--|
C|--3s--5--5--5--------------|-------------------------|


    ^  v  ^  v  ^  v  ^  v     ^  v  ^  v  ^  v  ^  v   
    E  E  E  E  E  E  E  E     E  E  E  E  E  E  E  E   
D|--------------------------|--------------------------|
A|--------------6--6--6--6--|--5--5--5--5--6--6--6--6--|
F|--------------5--5--5--5--|--5--5--5--5--5--5--5--5--|
C|--3--3--3--3--3--3--3--3--|--3--3--3--3--3--3--3--3--|
G|--3--3--3--3--3--3--3--3--|--3--3--3--3--3--3--3--3--|
C|--3--3--3--3--------------|--------------------------|


    ^      v  ^  v  ^  v  ^     v   ^   v   ^  v  ^  v  ^   
    E   E  E  E  E  E  E  E     E   E   E   E  E  E  E  E   
D|---------------------------|-----------------------------|
A|---------------8--8--8--8--|--x--10--10--10--x--8--8--8--|
F|---------------7--7--7--7--|--x---9---9---9--x--7--7--7--|
C|--3s--5--5--5--5--5--5--5--|--x---7---7---7--x--5--5--5--|
G|--3s--5--5--5--5--5--5--5--|--x---7---7---7--x--5--5--5--|
C|--3s--5--5--5--------------|-----------------------------|


                                                    ^  v  ^  v  ^  v  ^  v   
    Q    E  Q     Q    E     E  Q    H        E     E  E  E  E  E  E  E  E   
D|------------------------|----------------------|--------------------------|
A|----------8~------------|----------------------|--------------6--6--6--6--|
F|--7----9--------9----7--|--L--9----5--------L--|--------------5--5--5--5--|
C|------------------------|----------------------|--3--3--3--3--3--3--3--3--|
G|------------------------|----------------------|--3--3--3--3--3--3--3--3--|
C|------------------------|----------------------|--3--3--3--3--------------|


    ^  v  ^  v  ^  v  ^  v     ^      v  ^  v  ^  v  ^   
    E  E  E  E  E  E  E  E     E   E  E  E  E  E  E  E   
D|--------------------------|---------------------------|
A|--5--5--5--5--6--6--6--6--|---------------8--8--8--8--|
F|--5--5--5--5--5--5--5--5--|---------------7--7--7--7--|
C|--3--3--3--3--3--3--3--3--|--3s--5--5--5--5--5--5--5--|
G|--3--3--3--3--3--3--3--3--|--3s--5--5--5--5--5--5--5--|
C|--------------------------|--3s--5--5--5--------------|


       ^    ^  v  ^  v  ^     ^  v  ^  v  ^  v  ^  v     ^  v  ^  v  ^  v  ^  v   
    E  Q    E  E  E  E  E     E  E  E  E  E  E  E  E     E  E  E  E  E  E  E  E   
D|-------------------------|--------------------------|--------------------------|
A|--L--8----8--8--8--8--8--|--------------6--6--6--6--|--5--5--5--5--6--6--6--6--|
F|--L--7----7--7--7--7--7--|--------------5--5--5--5--|--5--5--5--5--5--5--5--5--|
C|--L--5----5--5--5--5--5--|--3--3--3--3--3--3--3--3--|--3--3--3--3--3--3--3--3--|
G|--L--5----5--5--5--5--5--|--3--3--3--3--3--3--3--3--|--3--3--3--3--3--3--3--3--|
C|-------------------------|--3--3--3--3--------------|--------------------------|


    ^      v  ^  v  ^  v  ^     v   ^   v   ^  v  ^  v  ^   
    E   E  E  E  E  E  E  E     E   E   E   E  E  E  E  E   
D|---------------------------|-----------------------------|
A|---------------8--8--8--8--|--x--10--10--10--x--8--8--8--|
F|---------------7--7--7--7--|--x---9---9---9--x--7--7--7--|
C|--3s--5--5--5--5--5--5--5--|--x---7---7---7--x--5--5--5--|
G|--3s--5--5--5--5--5--5--5--|--x---7---7---7--x--5--5--5--|
C|--3s--5--5--5--------------|-----------------------------|


    ^  v  ^  v  ^  v  ^  v     ^  v  ^  v  ^  v  ^  v   
    E  E  E  E  E  E  E  E     E  E  E  E  E  E  E  E   
D|--------------------------|--------------------------|
A|--------------6--6--6--6--|--5--5--5--5--6--6--6--6--|
F|--------------5--5--5--5--|--5--5--5--5--5--5--5--5--|
C|--3--3--3--3--3--3--3--3--|--3--3--3--3--3--3--3--3--|
G|--3--3--3--3--3--3--3--3--|--3--3--3--3--3--3--3--3--|
C|--3--3--3--3--------------|--------------------------|


    ^      v  ^  v  ^  v  ^        ^    ^  v  ^  v  ^   
    E   E  E  E  E  E  E  E     E  Q    E  E  E  E  E   
D|---------------------------|-------------------------|
A|---------------8--8--8--8--|--L--8----8--8--8--8--8--|
F|---------------7--7--7--7--|--L--7----7--7--7--7--7--|
C|--3s--5--5--5--5--5--5--5--|--L--5----5--5--5--5--5--|
G|--3s--5--5--5--5--5--5--5--|-----5----5--5--5--5--5--|
C|--3s--5--5--5--------------|-------------------------|


    ^  v  ^  v  ^  v  ^  v     ^  v  ^  v  ^  v  ^  v   
    E  E  E  E  E  E  E  E     E  E  E  E  E  E  E  E   
D|--------------------------|--------------------------|
A|--------------6--6--6--6--|--5--5--5--5--6--6--6--6--|
F|--------------5--5--5--5--|--5--5--5--5--5--5--5--5--|
C|--3--3--3--3--3--3--3--3--|--3--3--3--3--3--3--3--3--|
G|--3--3--3--3--3--3--3--3--|--3--3--3--3--3--3--3--3--|
C|--3--3--3--3--------------|--------------------------|


    ^      v  ^  v  ^  v  ^     v   ^   v   ^  v  ^  v  ^                        
    E   E  E  E  E  E  E  E     E   E   E   E  E  E  E  E     W                  
D|---------------------------|-----------------------------|-------------------||
A|---------------8--8--8--8--|--x--10--10--10--x--8--8--8--|--6----------------||
F|---------------7--7--7--7--|--x---9---9---9--x--7--7--7--|--5----------------||
C|--3s--5--5--5--5--5--5--5--|--x---7---7---7--x--5--5--5--|--3----------------||
G|--3s--5--5--5--5--5--5--5--|--x---7---7---7--x--5--5--5--|--3----------------||
C|--3s--5--5--5--------------|-----------------------------|--3----------------||


Padget plays this:

     ^  v  ^  v  ^  v  ^  v     ^  v  ^  v  ^  v  ^  v   
     E  E  E  E  E  E  E  E     E  E  E  E  E  E  E  E   
D||--------------------------|--------------------------|
A||--------------6--6--6--6--|--5--5--5--5--6--6--6--6--|
F||--------------5--5--5--5--|--5--5--5--5--5--5--5--5--|
C||--3--3--3--3--3--3--3--3--|--3--3--3--3--3--3--3--3--|
G||--3--3--3--3--3--3--3--3--|--3--3--3--3--3--3--3--3--|
C||--3--3--3--3--------------|--------------------------|


    ^      v  ^  v  ^  v  ^        ^    ^  v  ^  v  ^   
    E   E  E  E  E  E  E  E     E  Q    E  E  E  E  E   
D|---------------------------|-------------------------|
A|---------------8--8--8--8--|--L--8----8--8--8--8--8--|
F|---------------7--7--7--7--|--L--7----7--7--7--7--7--|
C|--3s--5--5--5--5--5--5--5--|--L--5----5--5--5--5--5--|
G|--3s--5--5--5--5--5--5--5--|-----5----5--5--5--5--5--|
C|--3s--5--5--5--------------|-------------------------|


    ^  v  ^  v  ^  v  ^  v     ^  v  ^  v  ^  v  ^  v   
    E  E  E  E  E  E  E  E     E  E  E  E  E  E  E  E   
D|--------------------------|--------------------------|
A|--------------6--6--6--6--|--5--5--5--5--6--6--6--6--|
F|--------------5--5--5--5--|--5--5--5--5--5--5--5--5--|
C|--3--3--3--3--3--3--3--3--|--3--3--3--3--3--3--3--3--|
G|--3--3--3--3--3--3--3--3--|--3--3--3--3--3--3--3--3--|
C|--3--3--3--3--------------|--------------------------|


    ^      v  ^  v  ^  v  ^     v   ^   v   ^  v  ^  v  ^   
    E   E  E  E  E  E  E  E     E   E   E   E  E  E  E  E   
D|---------------------------|-----------------------------|
A|---------------8--8--8--8--|--x--10--10--10--x--8--8--8--|
F|---------------7--7--7--7--|--x---9---9---9--x--7--7--7--|
C|--3s--5--5--5--5--5--5--5--|--x---7---7---7--x--5--5--5--|
G|--3s--5--5--5--5--5--5--5--|--x---7---7---7--x--5--5--5--|
C|--3s--5--5--5--------------|-----------------------------|


    ^  v  ^  v  ^  v  ^  v     ^  v  ^  v  ^  v  ^  v   
    E  E  E  E  E  E  E  E     E  E  E  E  E  E  E  E   
D|--------------------------|--------------------------|
A|--------------6--6--6--6--|--5--5--5--5--6--6--6--6--|
F|--------------5--5--5--5--|--5--5--5--5--5--5--5--5--|
C|--3--3--3--3--3--3--3--3--|--3--3--3--3--3--3--3--3--|
G|--3--3--3--3--3--3--3--3--|--3--3--3--3--3--3--3--3--|
C|--3--3--3--3--------------|--------------------------|


    ^      v  ^  v  ^  v  ^        ^    ^  v  ^  v  ^   
    E   E  E  E  E  E  E  E     E  Q    E  E  E  E  E   
D|---------------------------|-------------------------|
A|---------------8--8--8--8--|--L--8----8--8--8--8--8--|
F|---------------7--7--7--7--|--L--7----7--7--7--7--7--|
C|--3s--5--5--5--5--5--5--5--|--L--5----5--5--5--5--5--|
G|--3s--5--5--5--5--5--5--5--|-----5----5--5--5--5--5--|
C|--3s--5--5--5--------------|-------------------------|


    ^  v  ^  v  ^  v  ^  v     ^  v  ^  v  ^  v  ^  v   
    E  E  E  E  E  E  E  E     E  E  E  E  E  E  E  E   
D|--------------------------|--------------------------|
A|--------------6--6--6--6--|--5--5--5--5--6--6--6--6--|
F|--------------5--5--5--5--|--5--5--5--5--5--5--5--5--|
C|--3--3--3--3--3--3--3--3--|--3--3--3--3--3--3--3--3--|
G|--3--3--3--3--3--3--3--3--|--3--3--3--3--3--3--3--3--|
C|--3--3--3--3--------------|--------------------------|


    ^      v  ^  v  ^  v  ^     v   ^   v   ^  v  ^  v  ^                       
    E   E  E  E  E  E  E  E     E   E   E   E  E  E  E  E     W                 
D|---------------------------|-----------------------------|-------------------|
A|---------------8--8--8--8--|--x--10--10--10--x--8--8--8--|--1----------------|
F|---------------7--7--7--7--|--x---9---9---9--x--7--7--7--|--2----------------|
C|--3s--5--5--5--5--5--5--5--|--x---7---7---7--x--5--5--5--|--2----------------|
G|--3s--5--5--5--5--5--5--5--|--x---7---7---7--x--5--5--5--|--0----------------|
C|--3s--5--5--5--------------|-----------------------------|-------------------|


                        ^    v  v    ^  v  v        ^  v  ^  v  ^  v  ^   
    W                   Q    E  Q    E  E  E     E  E  E  E  E  E  E  E   
D|-------------------|--0----0--0----0--0--0--|--L--0--0--0--0--0--0--0--|
A|--L----------------|--1----1--1----1--1--1--|--L--1--1--1--1--1--1--1--|
F|--L----------------|--2----2--2----2--2--2--|--L--2--2--2--2--2--2--2--|
C|--L----------------|--2----2--2----2--2--2--|--L--2--2--2--2--2--2--2--|
G|--L----------------|--0----0--0----0--0--0--|--L--0--0--0--0--0--0--0--|
C|-------------------|------------------------|--------------------------|


    ^    v  v    ^  v  v     ^    v  v    ^  v  v     ^    v  v    ^  v  v   
    Q    E  Q    E  E  E     Q    E  Q    E  E  E     Q    E  Q    E  E  E   
D|--0----0--0----0--0--0--|--0----0--0----0--0--0--|--0----0--0----0--0--0--|
A|--1----1--1----1--1--1--|--3----3--3----3--3--3--|--1----1--1----1--1--1--|
F|--2----2--2----2--2--2--|--4----4--4----4--4--4--|--2----2--2----2--2--2--|
C|--3----3--3----3--3--3--|--5----5--5----5--5--5--|--2----2--2----2--2--2--|
G|------------------------|------------------------|--0----0--0----0--0--0--|
C|------------------------|------------------------|------------------------|


       ^  v  ^  v  ^  v  ^     ^    v  v    ^  v  v     ^                 
    E  E  E  E  E  E  E  E     Q    E  Q    E  E  E     W                 
D|--L--0--0--0--0--0--0--0--|--0----0--0----0--0--0--|--0----------------|
A|--L--1--1--1--1--1--1--1--|--1----1--1----1--1--1--|--3----------------|
F|--L--2--2--2--2--2--2--2--|--2----2--2----2--2--2--|--4----------------|
C|--L--2--2--2--2--2--2--2--|--3----3--3----3--3--3--|--5----------------|
G|--L--0--0--0--0--0--0--0--|------------------------|-------------------|
C|--------------------------|------------------------|-------------------|


    E  E  E  E  E  E  E  E     E  E  E  E  E  E  E  E   
D|--8-----8-----8-----8-----|--8-----8-----8-----8-----|
A|-----8-----8-----8-----8--|-----8-----8-----8-----8--|
F|--------------------------|--------------------------|
C|--------------------------|--------------------------|
G|--------------------------|--------------------------|
C|--------------------------|--------------------------|


     E  E   E  E   E  E   E  E     E  E  E  E  E  E  E  E   
D|--10-----10-----10-----10-----|--7-----7-----7-----7-----|
A|------8------8------8------8--|-----8-----8-----8-----8--|
F|------------------------------|--------------------------|
C|------------------------------|--------------------------|
G|------------------------------|--------------------------|
C|------------------------------|--------------------------|


    E  E  E  E  E  E  E  E     E  E  E  E  E  E  E  E   
D|--8-----8-----8-----8-----|--8-----8-----8-----8-----|
A|-----8-----8-----8-----8--|-----8-----8-----8-----8--|
F|--------------------------|--------------------------|
C|--------------------------|--------------------------|
G|--------------------------|--------------------------|
C|--------------------------|--------------------------|


     E  E   E  E   E  E   E  E     E  E  E  E  E  E  E  E   
D|--10-----10-----10-----10-----|--7-----7-----7-----7-----|
A|------8------8------8------8--|-----8-----8-----8-----8--|
F|------------------------------|--------------------------|
C|------------------------------|--------------------------|
G|------------------------------|--------------------------|
C|------------------------------|--------------------------|


    E  E  E  E  E  E  E  E     E  E  E  E  E  E  E  E   
D|--8-----8-----8-----8-----|--8-----8-----8-----8-----|
A|-----8-----8-----8-----8--|-----8-----8-----8-----8--|
F|--------------------------|--------------------------|
C|--------------------------|--------------------------|
G|--------------------------|--------------------------|
C|--------------------------|--------------------------|


     E  E   E  E   E  E   E  E     E  E  E  E  E  E  E  E   
D|--10-----10-----10-----10-----|--7-----7-----7-----7-----|
A|------8------8------8------8--|-----8-----8-----8-----8--|
F|------------------------------|--------------------------|
C|------------------------------|--------------------------|
G|------------------------------|--------------------------|
C|------------------------------|--------------------------|


    E  E  E  E  E  E  E  E     E  E  E  E  E  E  E  E   
D|--8-----8-----8-----8-----|--8-----8-----8-----8-----|
A|-----8-----8-----8-----8--|-----8-----8-----8-----8--|
F|--------------------------|--------------------------|
C|--------------------------|--------------------------|
G|--------------------------|--------------------------|
C|--------------------------|--------------------------|


     E  E   E  E   E  E   E  E     E  E  E  E  E  E  E  E   
D|--10-----10-----10-----10-----|--7-----7-----7-----7-----|
A|------8------8------8------8--|-----8-----8-----8-----8--|
F|------------------------------|--------------------------|
C|------------------------------|--------------------------|
G|------------------------------|--------------------------|
C|------------------------------|--------------------------|


    E  E  E  E  E  E  E  E     E  E  E  E  E  E  E  E   
D|--8-----8-----8-----8-----|--8-----8-----8-----8-----|
A|-----8-----8-----8-----8--|-----8-----8-----8-----8--|
F|--------------------------|--------------------------|
C|--------------------------|--------------------------|
G|--------------------------|--------------------------|
C|--------------------------|--------------------------|


    E  E  E  E  E  E  E  E     E  E  E  E  E  E  E  E   
D|--7-----7-----7-----7-----|--7-----7-----7-----7-----|
A|-----8-----8-----8-----8--|-----8-----8-----8-----8--|
F|--------------------------|--------------------------|
C|--------------------------|--------------------------|
G|--------------------------|--------------------------|
C|--------------------------|--------------------------|


    E  E  E  E  E  E  E  E     E  E  E  E  E  E  E  E   
D|--8-----8-----8-----8-----|--8-----8-----8-----8-----|
A|-----8-----8-----8-----8--|-----8-----8-----8-----8--|
F|--------------------------|--------------------------|
C|--------------------------|--------------------------|
G|--------------------------|--------------------------|
C|--------------------------|--------------------------|


    E  E  E  E  E  E  E  E      E  E   E  E  E  E  E  E   
D|--7-----7-----7-----7-----|--10-----10-----7-----7-----|
A|-----8-----8-----8-----8--|------8------8-----8-----8--|
F|--------------------------|----------------------------|
C|--------------------------|----------------------------|
G|--------------------------|----------------------------|
C|--------------------------|----------------------------|


    E  E  E  E  E  E  E  E     E  E  E  E  E  E  E  E   
D|--8-----8-----8-----8-----|--8-----8-----8-----8-----|
A|-----8-----8-----8-----8--|-----8-----8-----8-----8--|
F|--------------------------|--------------------------|
C|--------------------------|--------------------------|
G|--------------------------|--------------------------|
C|--------------------------|--------------------------|


    E  E  E  E  E  E  E  E     E  E  E  E  E  E  E  E   
D|--7-----7-----7-----7-----|--7-----7-----7-----7-----|
A|-----8-----8-----8-----8--|-----8-----8-----8-----8--|
F|--------------------------|--------------------------|
C|--------------------------|--------------------------|
G|--------------------------|--------------------------|
C|--------------------------|--------------------------|


    E  E  E  E  E  E  E  E     E  E  E  E  E  E  E  E   
D|--8-----8-----8-----8-----|--8-----8-----8-----8-----|
A|-----8-----8-----8-----8--|-----8-----8-----8-----8--|
F|--------------------------|--------------------------|
C|--------------------------|--------------------------|
G|--------------------------|--------------------------|
C|--------------------------|--------------------------|


    E  E  E  E  E  E  E  E      E  E   E  E  E  E  E  E   
D|--7-----7-----7-----7-----|--10-----10-----7-----7-----|
A|-----8-----8-----8-----8--|------8------8-----8-----8--|
F|--------------------------|----------------------------|
C|--------------------------|----------------------------|
G|--------------------------|----------------------------|
C|--------------------------|----------------------------|


    ^    v  v    ^  v  v        ^  v  ^  v  ^  v  ^     ^    v  v    ^  v  v   
    Q    E  Q    E  E  E     E  E  E  E  E  E  E  E     Q    E  Q    E  E  E   
D|--0----0--0----0--0--0--|--L--0--0--0--0--0--0--0--|--0----0--0----0--0--0--|
A|--1----1--1----1--1--1--|--L--1--1--1--1--1--1--1--|--1----1--1----1--1--1--|
F|--2----2--2----2--2--2--|--L--2--2--2--2--2--2--2--|--2----2--2----2--2--2--|
C|--2----2--2----2--2--2--|--L--2--2--2--2--2--2--2--|--3----3--3----3--3--3--|
G|--0----0--0----0--0--0--|--L--0--0--0--0--0--0--0--|------------------------|
C|------------------------|--------------------------|------------------------|


    ^    v  v    ^  v  v     ^    v  v    ^  v  v        ^  v  ^  v  ^  v  ^   
    Q    E  Q    E  E  E     Q    E  Q    E  E  E     E  E  E  E  E  E  E  E   
D|--0----0--0----0--0--0--|--0----0--0----0--0--0--|--L--0--0--0--0--0--0--0--|
A|--3----3--3----3--3--3--|--1----1--1----1--1--1--|--L--1--1--1--1--1--1--1--|
F|--4----4--4----4--4--4--|--2----2--2----2--2--2--|--L--2--2--2--2--2--2--2--|
C|--5----5--5----5--5--5--|--2----2--2----2--2--2--|--L--2--2--2--2--2--2--2--|
G|------------------------|--0----0--0----0--0--0--|--L--0--0--0--0--0--0--0--|
C|------------------------|------------------------|--------------------------|


    ^    v  v    ^  v  v     ^    v  v    ^  v  v     ^    v  v    ^  v  v   
    Q    E  Q    E  E  E     Q    E  Q    E  E  E     Q    E  Q    E  E  E   
D|--0----0--0----0--0--0--|--0----0--0----0--0--0--|--0----0--0----0--0--0--|
A|--1----1--1----1--1--1--|--3----3--3----3--3--3--|--1----1--1----1--1--1--|
F|--2----2--2----2--2--2--|--4----4--4----4--4--4--|--2----2--2----2--2--2--|
C|--3----3--3----3--3--3--|--5----5--5----5--5--5--|--2----2--2----2--2--2--|
G|------------------------|------------------------|--0----0--0----0--0--0--|
C|------------------------|------------------------|------------------------|


       ^  v  ^  v  ^  v  ^     ^    v  v    ^  v  v     ^    v  v    ^  v  v   
    E  E  E  E  E  E  E  E     Q    E  Q    E  E  E     Q    E  Q    E  E  E   
D|--L--0--0--0--0--0--0--0--|--0----0--0----0--0--0--|--0----0--0----0--0--0--|
A|--L--1--1--1--1--1--1--1--|--1----1--1----1--1--1--|--3----3--3----3--3--3--|
F|--L--2--2--2--2--2--2--2--|--2----2--2----2--2--2--|--4----4--4----4--4--4--|
C|--L--2--2--2--2--2--2--2--|--3----3--3----3--3--3--|--5----5--5----5--5--5--|
G|--L--0--0--0--0--0--0--0--|------------------------|------------------------|
C|--------------------------|------------------------|------------------------|


    ^    v  v    ^  v  v        ^  v  ^  v  ^  v       
    Q    E  Q    E  E  E     E  E  E  E  E  E  E  S S  
D|--0----0--0----0--0--0--|--L--0--0--0--0--0--0------|
A|--1----1--1----1--1--1--|--L--1--1--1--1--1--1------|
F|--2----2--2----2--2--2--|--L--2--2--2--2--2--2--7-8-|
C|--2----2--2----2--2--2--|--L--2--2--2--2--2--2------|
G|--0----0--0----0--0--0--|--L--0--0--0--0--0--0------|
C|------------------------|---------------------------|


     E  S S E  Q    E  E  E     E  E  E  Q    E  Q                             
D|---------------------------|------------------------|-------|-------|-------|
A|---------------------------|------------------------|-------|-------|-------|
F|--10--8-7-5--7----5--3--5--|--L--3--1--3----1--0----|-------|-------|-------|
C|---------------------------|------------------------|-------|-------|-------|
G|---------------------------|------------------------|-------|-------|-------|
C|---------------------------|------------------------|-------|-------|-------|


                                             E   E   E   E   E   E   E   E   
D|-------|-------|-------|-------|-------|----------------------------------|
A|-------|-------|-------|-------|-------|----------------------------------|
F|-------|-------|-------|-------|-------|---9---9---9---9---9---9---9---9--|
C|-------|-------|-------|-------|-------|--10--10--10--10--10--10--10--10--|
G|-------|-------|-------|-------|-------|----------------------------------|
C|-------|-------|-------|-------|-------|----------------------------------|


     E   E   E   E   E   E   E   E      E   E   E   E   E   E   E   E   
D|----------------------------------|----------------------------------|
A|----------------------------------|----------------------------------|
F|---9---9---9---9---9---9---9---9--|--10--10--10--10--10--10--10--10--|
C|--10--10--10--10--10--10--10--10--|--12--12--12--12--12--12--12--12--|
G|----------------------------------|----------------------------------|
C|----------------------------------|----------------------------------|


     E   E   E   E  E  E  E  E      E   E   E   E   E   E   E   E   
D|------------------------------|----------------------------------|
A|------------------------------|----------------------------------|
F|---9---9---9---9--7--7--7--7--|---9---9---9---9---9---9---9---9--|
C|--10--10--10--10--9--9--9--9--|--10--10--10--10--10--10--10--10--|
G|------------------------------|----------------------------------|
C|------------------------------|----------------------------------|


     E   E   E   E   E   E   E   E      E   E   E   E   E   E   E   E   
D|----------------------------------|----------------------------------|
A|----------------------------------|----------------------------------|
F|---9---9---9---9---9---9---9---9--|--10--10--10--10--10--10--10--10--|
C|--10--10--10--10--10--10--10--10--|--12--12--12--12--12--12--12--12--|
G|----------------------------------|----------------------------------|
C|----------------------------------|----------------------------------|


     E   E   E   E  E  E  E  E     E  E  E  E  E  E  E  E   
D|------------------------------|--8-----8-----8-----8-----|
A|------------------------------|-----8-----8-----8-----8--|
F|---9---9---9---9--7--7--7--7--|--------------------------|
C|--10--10--10--10--9--9--9--9--|--------------------------|
G|------------------------------|--------------------------|
C|------------------------------|--------------------------|


    E  E  E  E  E  E  E  E     E  E  E  E  E  E  E  E   
D|--8-----8-----8-----8-----|--7-----7-----7-----7-----|
A|-----8-----8-----8-----8--|-----8-----8-----8-----8--|
F|--------------------------|--------------------------|
C|--------------------------|--------------------------|
G|--------------------------|--------------------------|
C|--------------------------|--------------------------|


    E  E  E  E  E  E  E  E     E  E  E  E  E  E  E  E   
D|--7-----7-----7-----7-----|--8-----8-----8-----8-----|
A|-----8-----8-----8-----8--|-----8-----8-----8-----8--|
F|--------------------------|--------------------------|
C|--------------------------|--------------------------|
G|--------------------------|--------------------------|
C|--------------------------|--------------------------|


    E  E  E  E  E  E  E  E     E  E  E  E  E  E  E  E   
D|--8-----8-----8-----8-----|--7-----7-----7-----7-----|
A|-----8-----8-----8-----8--|-----8-----8-----8-----8--|
F|--------------------------|--------------------------|
C|--------------------------|--------------------------|
G|--------------------------|--------------------------|
C|--------------------------|--------------------------|


     E  E   E  E  E  E  E  E     E  E  E  E  E  E  E  E   
D|--10-----10-----7-----7-----|--8-----8-----8-----8-----|
A|------8------8-----8-----8--|-----8-----8-----8-----8--|
F|----------------------------|--------------------------|
C|----------------------------|--------------------------|
G|----------------------------|--------------------------|
C|----------------------------|--------------------------|


    E  E  E  E  E  E  E  E     E  E  E  E  E  E  E  E   
D|--8-----8-----8-----8-----|--7-----7-----7-----7-----|
A|-----8-----8-----8-----8--|-----8-----8-----8-----8--|
F|--------------------------|--------------------------|
C|--------------------------|--------------------------|
G|--------------------------|--------------------------|
C|--------------------------|--------------------------|


    E  E  E  E  E  E  E  E     E  E  E  E  E  E  E  E   
D|--7-----7-----7-----7-----|--8-----8-----8-----8-----|
A|-----8-----8-----8-----8--|-----8-----8-----8-----8--|
F|--------------------------|--------------------------|
C|--------------------------|--------------------------|
G|--------------------------|--------------------------|
C|--------------------------|--------------------------|


    E  E  E  E  E  E  E  E     E  E  E  E  E  E  E  E   
D|--8-----8-----8-----8-----|--7-----7-----7-----7-----|
A|-----8-----8-----8-----8--|-----8-----8-----8-----8--|
F|--------------------------|--------------------------|
C|--------------------------|--------------------------|
G|--------------------------|--------------------------|
C|--------------------------|--------------------------|


     E  E   E  E  E  E  E  E     Q     E  Q      Q    E     E   Q    H        E   
D|--10-----10-----7-----7-----|--------------------------|-----------------------|
A|------8------8-----8-----8--|--------------------------|-----------------------|
F|----------------------------|-----------9~-------------|-----------------------|
C|----------------------------|--9----10--------10----9--|--L--10----7--------L--|
G|----------------------------|--------------------------|-----------------------|
C|----------------------------|--------------------------|-----------------------|


    E  E  E  E  E  E  E  E     E  E  E  E  E  E  E  E   
D|--8-----8-----8-----8-----|--8-----8-----8-----8-----|
A|-----8-----8-----8-----8--|-----8-----8-----8-----8--|
F|--------------------------|--------------------------|
C|--------------------------|--------------------------|
G|--------------------------|--------------------------|
C|--------------------------|--------------------------|


    E  E  E  E  E  E  E  E     E  E  E  E  E  E  E  E   
D|--7-----7-----7-----7-----|--7-----7-----7-----7-----|
A|-----8-----8-----8-----8--|-----8-----8-----8-----8--|
F|--------------------------|--------------------------|
C|--------------------------|--------------------------|
G|--------------------------|--------------------------|
C|--------------------------|--------------------------|


    E  E  E  E  E  E  E  E     E  E  E  E  E  E  E  E   
D|--8-----8-----8-----8-----|--8-----8-----8-----8-----|
A|-----8-----8-----8-----8--|-----8-----8-----8-----8--|
F|--------------------------|--------------------------|
C|--------------------------|--------------------------|
G|--------------------------|--------------------------|
C|--------------------------|--------------------------|


    E  E  E  E  E  E  E  E      E  E   E  E  E  E  E  E   
D|--7-----7-----7-----7-----|--10-----10-----7-----7-----|
A|-----8-----8-----8-----8--|------8------8-----8-----8--|
F|--------------------------|----------------------------|
C|--------------------------|----------------------------|
G|--------------------------|----------------------------|
C|--------------------------|----------------------------|


    E  E  E  E  E  E  E  E     E  E  E  E  E  E  E  E   
D|--8-----8-----8-----8-----|--8-----8-----8-----8-----|
A|-----8-----8-----8-----8--|-----8-----8-----8-----8--|
F|--------------------------|--------------------------|
C|--------------------------|--------------------------|
G|--------------------------|--------------------------|
C|--------------------------|--------------------------|


    E  E  E  E  E  E  E  E     E  E  E  E  E  E  E  E   
D|--7-----7-----7-----7-----|--7-----7-----7-----7-----|
A|-----8-----8-----8-----8--|-----8-----8-----8-----8--|
F|--------------------------|--------------------------|
C|--------------------------|--------------------------|
G|--------------------------|--------------------------|
C|--------------------------|--------------------------|


    E  E  E  E  E  E  E  E     E  E  E  E  E  E  E  E   
D|--8-----8-----8-----8-----|--8-----8-----8-----8-----|
A|-----8-----8-----8-----8--|-----8-----8-----8-----8--|
F|--------------------------|--------------------------|
C|--------------------------|--------------------------|
G|--------------------------|--------------------------|
C|--------------------------|--------------------------|


    E  E  E  E  E  E  E  E      E  E   E  E  E  E  E  E          
D|--7-----7-----7-----7-----|--10-----10-----7-----7-----|-----||
A|-----8-----8-----8-----8--|------8------8-----8-----8--|-----||
F|--------------------------|----------------------------|-----||
C|--------------------------|----------------------------|-----||
G|--------------------------|----------------------------|-----||
C|--------------------------|----------------------------|-----||

************************************

| x  Dead note
| h  Hammer-on
| /  Slide up
| ~  Vibrato
| s  slide

************************************
Suggest correction
What's this?
You can suggest a correction to this tab. Community and Mods will review your correction and vote to approve or reject it.
comments
print report bad tab
32 comments total. Showing first comments.
0 reply
I-Z 506 wrote on November 8 2006, 11:53 am

where did you find the acoustic version of this song

+1 reply
alliwant 1,155 wrote on November 24 2006, 05:32 pm

^ Look on youtube, it's there.

0 reply
ducky!! 91 wrote on December 12 2006, 11:11 pm

dude its not 100% because matt tuck has his finger on the full fret of 5 in the begginning, it may sound good, but its not right, so meh, decent, but good job, i could never tab anything

guest
You may want to rate the tab now too:
select rating
Please do not post tabs as comments. Select "correction" instead!