Oops, an error
Loading. Please wait.

Tears Dont Fall Tab

version 2
220,247 views 126 this week
14 commentsread comments
1 2 3 4 5
excellent!
x 64
add to favorites
launch autoscroll
font size
0
reset
how to read this tab
guitar tuner
Autoscroll
slow
fast
+/-
esc
set tempo
stop
Help us to improve Ultimate-Guitar.com Take our survey!
×
Contributor
Difficulty
Tuning
royturner23 3,160
advanced
C G C F A D
Tears Don't Fall Acoustic
Bullet For My Valentine
The Poison Deluxe Edition
Drop C- CGCFAD


[Intro]

Matt & Padge
D||------------------------------------------------------------------|
A||o---------6-6-6-6-5-5-5-5-6-6-6-6----------8-8-8-8--8--8--8-8-8-8-|
F||----------5-5-5-5-5-5-5-5-5-5-5-5----------7-7-7-7--7--7--7-7-7-7-|
C||--3-3-3-3-3-3-3-3-3-3-3-3-3-3-3-3--3/5-5-5-5-5-5-5--5--5--5-5-5-5-|
G||o-3-3-3-3-3-3-3-3-3-3-3-3-3-3-3-3--3/5-5-5-5-5-5-5--5--5--5-5-5-5-|
C||--3-3-3-3-3-3-3-3-3-3-3-3-3-3-3-3--3/5-5-5-5-5-5-5--5--5--5-5-5-5-|

D|--------------------------------------------------------------------------||
A|---------6-6-6-6-5-5-5-5-6-6-6-6----------8-8-8-8---10--10--10---8--8--8-o||
F|---------5-5-5-5-5-5-5-5-5-5-5-5----------7-7-7-7---9---9---9----7--7--7--||
C|-3-3-3-3-3-3-3-3-3-3-3-3-3-3-3-3--3/5-5-5-5-5-5-5-x-7---7---7--x-5--5--5--||
G|-3-3-3-3-3-3-3-3-3-3-3-3-3-3-3-3--3/5-5-5-5-5-5-5-x-7---7---7--x-5--5--5-o||
C|-3-3-3-3-3-3-3-3-3-3-3-3-3-3-3-3--3/5-5-5-5-5-5-5-x-7---7---7--x-5--5--5--||

Matt
D|---------------------------------|
A|---------------------------------|
F|---------------------------------|
C|-2-2-2-2-2-2-2-2-2-2-2-2-2-2-2-2-|
G|-0-0-0-0-0-0-0-0-0-0-0-0-0-0-0-0-|
C|---------------------------------|
   pm- - - - - - - - - - - - - - -


[Verse]

Matt & Padge
D|----0-0--0--0-0--0-0-0-0-0-0--0--0-0--0--0-0--0--0-0--0--0-0-|
A|----1-1--1--1-1--1-1-1-1-1-1--1--1-1--1--1-1--3--3-3--3--3-3-|
F|-2--2-2--2--2-2--2-2-2-2-2-2--2--2-2--2--2-2--4--4-4--4--4-4-|
C|-2--2-2--2--2-2--2-2-2-2-2-2--3--3-3--3--3-3--5--5-5--5--5-5-|
G|-0--0-0--0--0-0--0-0-0-0-0-0---------------------------------|
C|-------------------------------------------------------------|
"With blood shot eyes, I watch you sleepin'...

D|-0--0-0--0--0-0--0-0-0-0-0-0--0--0-0--0--0-0--0~~~~-|
A|-1--1-1--1--1-1--1-1-1-1-1-1--1--1-1--1--1-1--3~~~~-|
F|-2--2-2--2--2-2--2-2-2-2-2-2--2--2-2--2--2-2--4~~~~-|
C|-2--2-2--2--2-2--2-2-2-2-2-2--3--3-3--3--3-3--5~~~~-|
G|-0--0-0--0--0-0--0-0-0-0-0-0------------------------|
C|----------------------------------------------------|
...The warmth I feel beside me, is slowly fading"

Would she...


Matt
D||----------0----------------0----------------0----------------0--------||
A||o-----1-----1---1------1-----1---1------1-----1---1------3-----3---3-o||
F||----2---2-----2------2---2-----2------2---2-----2------4---4-----4----||
C||--2----------------2----------------3----------------5----------------||
G||o--------------------------------------------------------------------o||
C||----------------------------------------------------------------------||x4

Padge
D||--8---8---8---8---8---8---8---8---10---10---10---10---7---7---7---7----||
A||o---8---8---8---8---8---8---8---8----8----8----8----8---8---8---8---8-o||
F||-----------------------------------------------------------------------||
C||-----------------------------------------------------------------------||
G||o---------------------------------------------------------------------o||
C||-----------------------------------------------------------------------||x4
-"Hear mee, If I called her name... Would she...
-Hold me... If she knew my shaame...
-There's always something different going on, the path I walks in the wrong direction...
-There's always someone fucking hanging on, can anybody help make it better"


[Chorus]

Matt
D||------------------------------------------------------------------|
A||o---------6-6-6-6-5-5-5-5-6-6-6-6----------8-8-8-8--8--8--8-8-8-8-|
F||----------5-5-5-5-5-5-5-5-5-5-5-5----------7-7-7-7--7--7--7-7-7-7-|
C||--3-3-3-3-3-3-3-3-3-3-3-3-3-3-3-3--3/5-5-5-5-5-5-5--5--5--5-5-5-5-|
G||o-3-3-3-3-3-3-3-3-3-3-3-3-3-3-3-3--3/5-5-5-5-5-5-5--5--5--5-5-5-5-|
C||--3-3-3-3-3-3-3-3-3-3-3-3-3-3-3-3--3/5-5-5-5-5-5-5--5--5--5-5-5-5-|

D|--------------------------------------------------------------------------||
A|---------6-6-6-6-5-5-5-5-6-6-6-6----------8-8-8-8---10--10--10---8--8--8-o||
F|---------5-5-5-5-5-5-5-5-5-5-5-5----------7-7-7-7---9---9---9----7--7--7--||
C|-3-3-3-3-3-3-3-3-3-3-3-3-3-3-3-3--3/5-5-5-5-5-5-5-x-7---7---7--x-5--5--5--||
G|-3-3-3-3-3-3-3-3-3-3-3-3-3-3-3-3--3/5-5-5-5-5-5-5-x-7---7---7--x-5--5--5-o||
C|-3-3-3-3-3-3-3-3-3-3-3-3-3-3-3-3--3/5-5-5-5-5-5-5-x-7---7---7--x-5--5--5--||

Padge
D||--8---8---8---8---8---8---8---8---10---10---10---10---7---7---7---7----||
A||o---8---8---8---8---8---8---8---8----8----8----8----8---8---8---8---8-o||
F||-----------------------------------------------------------------------||
C||-----------------------------------------------------------------------||
G||o---------------------------------------------------------------------o||
C||-----------------------------------------------------------------------||x3

D|-8---8---8---8---8---8---8---8---7---7---7---7---10---10---7---7---|
A|---8---8---8---8---8---8---8---8---8---8---8---8----8----8---8---8-|
F|-------------------------------------------------------------------|
C|-------------------------------------------------------------------|
G|-------------------------------------------------------------------|
C|-------------------------------------------------------------------|
"Your tears don't faaalll, they crash around meeee...
...Her conscience caaallls, the guilty to come home"


Matt
D|---------------------------------|
A|---------------------------------|
F|---------------------------------|
C|-2-2-2-2-2-2-2-2-2-2-2-2-2-2-2-2-|
G|-0-0-0-0-0-0-0-0-0-0-0-0-0-0-0-0-|
C|---------------------------------|
   pm- - - - - - - - - - - - - - -


[Verse]

Matt & Padge
D|----0-0--0--0-0--0-0-0-0-0-0--0--0-0--0--0-0--0--0-0--0--0-0-|
A|----1-1--1--1-1--1-1-1-1-1-1--1--1-1--1--1-1--3--3-3--3--3-3-|
F|-2--2-2--2--2-2--2-2-2-2-2-2--2--2-2--2--2-2--4--4-4--4--4-4-|
C|-2--2-2--2--2-2--2-2-2-2-2-2--3--3-3--3--3-3--5--5-5--5--5-5-|
G|-0--0-0--0--0-0--0-0-0-0-0-0---------------------------------|
C|-------------------------------------------------------------|
"The moments dieed, I hear no screamin'...

D|-0--0-0--0--0-0--0-0-0-0-0-0--0--0-0--0--0-0--0~~~~-|
A|-1--1-1--1--1-1--1-1-1-1-1-1--1--1-1--1--1-1--3~~~~-|
F|-2--2-2--2--2-2--2-2-2-2-2-2--2--2-2--2--2-2--4~~~~-|
C|-2--2-2--2--2-2--2-2-2-2-2-2--3--3-3--3--3-3--5~~~~-|
G|-0--0-0--0--0-0--0-0-0-0-0-0------------------------|
C|----------------------------------------------------|
...The visions left in side me are slowly fading"

Would she...


Matt
D||----------0----------------0----------------0----------------0--------||
A||o-----1-----1---1------1-----1---1------1-----1---1------3-----3---3-o||
F||----2---2-----2------2---2-----2------2---2-----2------4---4-----4----||
C||--2----------------2----------------3----------------5----------------||
G||o--------------------------------------------------------------------o||
C||----------------------------------------------------------------------||x4

Padge
D||--8---8---8---8---8---8---8---8---10---10---10---10---7---7---7---7----||
A||o---8---8---8---8---8---8---8---8----8----8----8----8---8---8---8---8-o||
F||-----------------------------------------------------------------------||
C||-----------------------------------------------------------------------||
G||o---------------------------------------------------------------------o||
C||-----------------------------------------------------------------------||x4
-"Hear mee, If I called her name... Would she...
-Hold me... If she knew my shaame...
-There's always something different going on, the path I walks in the wrong direction...
-There's always someone fucking hanging on, can anybody help make it better"


[Chorus]

Matt
D||------------------------------------------------------------------|
A||o---------6-6-6-6-5-5-5-5-6-6-6-6----------8-8-8-8--8--8--8-8-8-8-|
F||----------5-5-5-5-5-5-5-5-5-5-5-5----------7-7-7-7--7--7--7-7-7-7-|
C||--3-3-3-3-3-3-3-3-3-3-3-3-3-3-3-3--3/5-5-5-5-5-5-5--5--5--5-5-5-5-|
G||o-3-3-3-3-3-3-3-3-3-3-3-3-3-3-3-3--3/5-5-5-5-5-5-5--5--5--5-5-5-5-|
C||--3-3-3-3-3-3-3-3-3-3-3-3-3-3-3-3--3/5-5-5-5-5-5-5--5--5--5-5-5-5-|

D|--------------------------------------------------------------------------||
A|---------6-6-6-6-5-5-5-5-6-6-6-6----------8-8-8-8---10--10--10---8--8--8-o||
F|---------5-5-5-5-5-5-5-5-5-5-5-5----------7-7-7-7---9---9---9----7--7--7--||
C|-3-3-3-3-3-3-3-3-3-3-3-3-3-3-3-3--3/5-5-5-5-5-5-5-x-7---7---7--x-5--5--5--||
G|-3-3-3-3-3-3-3-3-3-3-3-3-3-3-3-3--3/5-5-5-5-5-5-5-x-7---7---7--x-5--5--5-o||
C|-3-3-3-3-3-3-3-3-3-3-3-3-3-3-3-3--3/5-5-5-5-5-5-5-x-7---7---7--x-5--5--5--||

Padge
D||--8---8---8---8---8---8---8---8---10---10---10---10---7---7---7---7----||
A||o---8---8---8---8---8---8---8---8----8----8----8----8---8---8---8---8-o||
F||-----------------------------------------------------------------------||
C||-----------------------------------------------------------------------||
G||o---------------------------------------------------------------------o||
C||-----------------------------------------------------------------------||x3

D|-8---8---8---8---8---8---8---8---7---7---7---7---10---10---7---7---|
A|---8---8---8---8---8---8---8---8---8---8---8---8----8----8---8---8-|
F|-------------------------------------------------------------------|
C|-------------------------------------------------------------------|
G|-------------------------------------------------------------------|
C|-------------------------------------------------------------------|
"Your tears don't faaalll, they crash around meeee...
...Her conscience caaallls, the guilty to come home"


[Solo]

Matt
D|----------------------------------------------------|
A|--------------------8-5h6p5-6-----------------------|
F|-----7p5---5~~-----------------9-7-9~--7-5-7~--5-4~-|
C|-5h7-----7----7~~~----------------------------------|
G|----------------------------------------------------|
C|----------------------------------------------------|

Padge
D|----0-0--0--0-0--0-0-0-0-0-0--0--0-0--0--0-0--0--0-0--0--0-0-|
A|----1-1--1--1-1--1-1-1-1-1-1--1--1-1--1--1-1--3--3-3--3--3-3-|
F|-2--2-2--2--2-2--2-2-2-2-2-2--2--2-2--2--2-2--4--4-4--4--4-4-|
C|-2--2-2--2--2-2--2-2-2-2-2-2--3--3-3--3--3-3--5--5-5--5--5-5-|
G|-0--0-0--0--0-0--0-0-0-0-0-0---------------------------------|
C|-------------------------------------------------------------|



Matt
D|------------------------------------------------|
A|------------------------------------------------|
F|------------------------------------------------|
C|-/7~~--/9~~--/10~~--/5~~~--3~~~--3h5p2~~~-------|
G|------------------------------------------/5~~~-|
C|------------------------------------------------|

Padge
D|-0--0-0--0--0-0--0-0-0-0-0-0--0--0-0--0--0-0--0--0-0--0--0-0-|
A|-1--1-1--1--1-1--1-1-1-1-1-1--1--1-1--1--1-1--3--3-3--3--3-3-|
F|-2--2-2--2--2-2--2-2-2-2-2-2--2--2-2--2--2-2--4--4-4--4--4-4-|
C|-2--2-2--2--2-2--2-2-2-2-2-2--3--3-3--3--3-3--5--5-5--5--5-5-|
G|-0--0-0--0--0-0--0-0-0-0-0-0---------------------------------|
C|-------------------------------------------------------------|



Matt
D|------------------------12-------12-------12-----10-------10-------10----|
A|-10~~--12~~--13~~----------13-------13-------13-----12-------12-------12-|
F|-------------------12~~-------14-------14--------------12-------12-------|
C|-------------------------------------------------------------------------|
G|-------------------------------------------------------------------------|
C|-------------------------------------------------------------------------|

Padge
D|-0--0-0--0--0-0--0-0-0-0-0-0--0--0-0--0--0-0--0--0-0--0--0-0-|
A|-1--1-1--1--1-1--1-1-1-1-1-1--1--1-1--1--1-1--3--3-3--3--3-3-|
F|-2--2-2--2--2-2--2-2-2-2-2-2--2--2-2--2--2-2--4--4-4--4--4-4-|
C|-2--2-2--2--2-2--2-2-2-2-2-2--3--3-3--3--3-3--5--5-5--5--5-5-|
G|-0--0-0--0--0-0--0-0-0-0-0-0---------------------------------|
C|-------------------------------------------------------------|



Matt
D|-----------------------------------------------------------|
A|------------------------------8-5h6p5-6--------------------|
F|----------------------------------------9-7-9~-7-5-7~-5-4~-|
C|-/7~~---/9~~---/10~~---/5~~~-------------------------------|
G|-----------------------------------------------------------|
C|-----------------------------------------------------------|

Padge
D|-0--0-0--0--0-0--0-0-0-0-0-0-------------------------------|
A|-1--1-1--1--1-1--1-1-1-1-1-1-------------------------------|
F|-2--2-2--2--2-2--2-2-2-2-2-2--9-5h7p5-7-5-3-5~-3-1-3~-1-0~-|
C|-2--2-2--2--2-2--2-2-2-2-2-2-------------------------------|
G|-0--0-0--0--0-0--0-0-0-0-0-0-------------------------------|
C|-----------------------------------------------------------|


Matt & Padge
D||----------0----------------0----------------0----------------0--------||
A||o-----1-----1---1------1-----1---1------1-----1---1------3-----3---3-o||
F||----2---2-----2------2---2-----2------2---2-----2------4---4-----4----||
C||--2----------------2----------------3----------------5----------------||
G||o--------------------------------------------------------------------o||
C||----------------------------------------------------------------------||
-"Hear mee, If I called her name... Would she...
-Hold me... If she knew my shaame..."


Matt
D||----------0----------------0----------------0----------------0--------||
A||o-----1-----1---1------1-----1---1------1-----1---1------3-----3---3-o||
F||----2---2-----2------2---2-----2------2---2-----2------4---4-----4----||
C||--2----------------2----------------3----------------5----------------||
G||o--------------------------------------------------------------------o||
C||----------------------------------------------------------------------||

Padge
D||----------------------------------------------------------------------------------------------||
A||o--------------------------------------------------------------------------------------------o||
F||--9--9--9--9--9--9--9--9--9--9--9--9--9--9--9--9--10-10-10-10-10-10-10-10-9--9--9--9--7-7-7-7-||
C||--10-10-10-10-10-10-10-10-10-10-10-10-10-10-10-10-12-12-12-12-12-12-12-12-10-10-10-10-9-9-9-9-||
G||o--------------------------------------------------------------------------------------------o||
C||----------------------------------------------------------------------------------------------||
-"There's always something different going on, the path I walks in the wrong direction...
-There's always someone fucking hanging on, can anybody help make it better"


[Chorus]

Matt
D||------------------------------------------------------------------|
A||o---------6-6-6-6-5-5-5-5-6-6-6-6----------8-8-8-8--8--8--8-8-8-8-|
F||----------5-5-5-5-5-5-5-5-5-5-5-5----------7-7-7-7--7--7--7-7-7-7-|
C||--3-3-3-3-3-3-3-3-3-3-3-3-3-3-3-3--3/5-5-5-5-5-5-5--5--5--5-5-5-5-|
G||o-3-3-3-3-3-3-3-3-3-3-3-3-3-3-3-3--3/5-5-5-5-5-5-5--5--5--5-5-5-5-|
C||--3-3-3-3-3-3-3-3-3-3-3-3-3-3-3-3--3/5-5-5-5-5-5-5--5--5--5-5-5-5-|

D|--------------------------------------------------------------------------||
A|---------6-6-6-6-5-5-5-5-6-6-6-6----------8-8-8-8---10--10--10---8--8--8-o||
F|---------5-5-5-5-5-5-5-5-5-5-5-5----------7-7-7-7---9---9---9----7--7--7--||
C|-3-3-3-3-3-3-3-3-3-3-3-3-3-3-3-3--3/5-5-5-5-5-5-5-x-7---7---7--x-5--5--5--||
G|-3-3-3-3-3-3-3-3-3-3-3-3-3-3-3-3--3/5-5-5-5-5-5-5-x-7---7---7--x-5--5--5-o||
C|-3-3-3-3-3-3-3-3-3-3-3-3-3-3-3-3--3/5-5-5-5-5-5-5-x-7---7---7--x-5--5--5--||

Padge
D||--8---8---8---8---8---8---8---8---10---10---10---10---7---7---7---7----||
A||o---8---8---8---8---8---8---8---8----8----8----8----8---8---8---8---8-o||
F||-----------------------------------------------------------------------||
C||-----------------------------------------------------------------------||
G||o---------------------------------------------------------------------o||
C||-----------------------------------------------------------------------||x3

D|-8---8---8---8---8---8---8---8---7---7---7---7---10---10---7---7---|
A|---8---8---8---8---8---8---8---8---8---8---8---8----8----8---8---8-|
F|-------------------------------------------------------------------|
C|-------------------------------------------------------------------|
G|-------------------------------------------------------------------|
C|-------------------------------------------------------------------|
"Your tears don't faaalll, they crash around meeee...
...Her conscience caaallls, the guilty to come home"

-"Your tears don't faaalll, they crash around meeee...
...Her conscience caaallls, the guiltyyyyy"

D|-----------------------------|
A|-----------------------------|
F|--------12br~~---------------|
C|-12~-14--------14-12-14-10~~-|
G|-----------------------------|
C|-----------------------------|

Padge
D|-----------------------------|
A|-----------------------------|
F|--------9br~~~---------------|
C|-9~~-10--------10-9--10-7~~~-|
G|-----------------------------|
C|-----------------------------|


[Chorus]

Matt
D|-----------------------------------------------------------------|
A|---------6-6-6-6-5-5-5-5-6-6-6-6----------8-8-8-8--8--8--8-8-8-8-|
F|---------5-5-5-5-5-5-5-5-5-5-5-5----------7-7-7-7--7--7--7-7-7-7-|
C|-3-3-3-3-3-3-3-3-3-3-3-3-3-3-3-3--3/5-5-5-5-5-5-5--5--5--5-5-5-5-|
G|-3-3-3-3-3-3-3-3-3-3-3-3-3-3-3-3--3/5-5-5-5-5-5-5--5--5--5-5-5-5-|
C|-3-3-3-3-3-3-3-3-3-3-3-3-3-3-3-3--3/5-5-5-5-5-5-5--5--5--5-5-5-5-|

D|-------------------------------------------------------------------------|
A|---------6-6-6-6-5-5-5-5-6-6-6-6----------8-8-8-8---10--10--10---8--8--8-|
F|---------5-5-5-5-5-5-5-5-5-5-5-5----------7-7-7-7---9---9---9----7--7--7-|
C|-3-3-3-3-3-3-3-3-3-3-3-3-3-3-3-3--3/5-5-5-5-5-5-5-x-7---7---7--x-5--5--5-|
G|-3-3-3-3-3-3-3-3-3-3-3-3-3-3-3-3--3/5-5-5-5-5-5-5-x-7---7---7--x-5--5--5-|
C|-3-3-3-3-3-3-3-3-3-3-3-3-3-3-3-3--3/5-5-5-5-5-5-5-x-7---7---7--x-5--5--5-|

Padge
D|-8---8---8---8---8---8---8---8---10---10---10---10---7---7---7---7---|
A|---8---8---8---8---8---8---8---8----8----8----8----8---8---8---8---8-|
F|---------------------------------------------------------------------|
C|---------------------------------------------------------------------|
G|---------------------------------------------------------------------|
C|---------------------------------------------------------------------|

D|-8---8---8---8---8---8---8---8---7---7---7---7---10---10---7---7---|
A|---8---8---8---8---8---8---8---8---8---8---8---8----8----8---8---8-|
F|-------------------------------------------------------------------|
C|-------------------------------------------------------------------|
G|-------------------------------------------------------------------|
C|-------------------------------------------------------------------|
"Your tears don't faaalll, they crash around meeee...
...Her conscience caaallls, the guilty to come home"


Matt
D|-----------------------------------------------------------------|
A|---------6-6-6-6-5-5-5-5-6-6-6-6----------8-8-8-8--8--8--8-8-8-8-|
F|---------5-5-5-5-5-5-5-5-5-5-5-5----------7-7-7-7--7--7--7-7-7-7-|
C|-3-3-3-3-3-3-3-3-3-3-3-3-3-3-3-3--3/5-5-5-5-5-5-5--5--5--5-5-5-5-|
G|-3-3-3-3-3-3-3-3-3-3-3-3-3-3-3-3--3/5-5-5-5-5-5-5--5--5--5-5-5-5-|
C|-3-3-3-3-3-3-3-3-3-3-3-3-3-3-3-3--3/5-5-5-5-5-5-5--5--5--5-5-5-5-|

D|----------------------------------------------------------------------------------|
A|---------6-6-6-6-5-5-5-5-6-6-6-6----------8-8-8-8---10--10--10---8---8---8---6~~~-|
F|---------5-5-5-5-5-5-5-5-5-5-5-5----------7-7-7-7---9---9---9----7---7---7---5~~~-|
C|-3-3-3-3-3-3-3-3-3-3-3-3-3-3-3-3--3/5-5-5-5-5-5-5-x-7---7---7----5---5---5---3~~~-|
G|-3-3-3-3-3-3-3-3-3-3-3-3-3-3-3-3--3/5-5-5-5-5-5-5-x-7---7---7----5---5---5---3~~~-|
C|-3-3-3-3-3-3-3-3-3-3-3-3-3-3-3-3--3/5-5-5-5-5-5-5-x-7---7---7----5---5---5---3~~~-|

Padge
D|-8---8---8---8---8---8---8---8---10---10---10---10---7---7---7---7---|
A|---8---8---8---8---8---8---8---8----8----8----8----8---8---8---8---8-|
F|---------------------------------------------------------------------|
C|---------------------------------------------------------------------|
G|---------------------------------------------------------------------|
C|---------------------------------------------------------------------|

D|-8---8---8---8---8---8---8---8---7---7---7------7-----10-----10-----7-----7-------|
A|---8---8---8---8---8---8---8---8---8---8-----8-----8------8------8-----8-----8~~~-|
F|----------------------------------------------------------------------------------|
C|----------------------------------------------------------------------------------|
G|----------------------------------------------------------------------------------|
C|----------------------------------------------------------------------------------|

"...Mmm your tears don't faall"

Matt
D|------3~--------------|
A|-----6~~--6~~---------|
F|----5~~~----5~~-------|
C|---3~~~~------3~~-----|
G|--3~~~~~--------------|
C|-3~~~~~~--------3~~~~-|



************************************

| x  Dead note
| h  Hammer-on
| p  Pull-off
| /  Slide up
| ~  Vibrato
| br Bend Release 
| -  Palm mute

************************************
comments
print report bad tab
14 comments total. Showing first comments.
+2 reply
punk Rocker 32 137 wrote on June 16 2009, 02:29 pm

this one is awesoem.

+2 reply
punk Rocker 32 137 wrote on June 16 2009, 04:32 pm

i like a7x bfmv metallica and disturbed. christian.... this version is better.

+1 reply
ShredHead6661 13 wrote on June 16 2009, 05:03 pm

me too..... even though thats my old account. stupid hackers.

I want to post or [tab]
guest
You may want to rate the tab now too:
select rating
Please do not post tabs as comments. Select "correction" instead!