Oops, an error
Loading. Please wait.

Tears Dont Fall Bass Tab

version 1
version 1
86,195 views 24 this week
19 commentsread comments
1 2 3 4 5
x 24
add to favorites
launch autoscroll
font size
0
reset
guitar tuner
Autoscroll
slow
fast
+/-
esc
set tempo
stop
Help us to improve Ultimate-Guitar.com Take our survey!
×
[Intro]
G|------------------------|------------------------|------------------------|------------------------|
D|------------------------|------------------------|------------------------|------------------------|
A|------------------------|------------------------|------------------------|------------------------|
E|-3--3--3--3--3--3--3--3-|-3--3--3--3--3--3--3--3-|-5--5--5--5--5--5--5--5-|-5--5--5--5--5--5--5--5-|
                                                                                         
  x2
G|------------------------|------------------------|------------------------|------------------------|
D|------------------------|------------------------|------------------------|------------------------|
A|------------------------|------------------------|------------------------|------------------------|
E|-3--3--3--3--3--3--3--3-|-3--3--3--3--3--3--3--3-|-5--5--5--5--5--5--5--5-|-7--7--7--7--5--5--5--5-|

 [Verse]
G|------------------------|
D|------------------------|
A|------------------------|
E|--7----7-7-7--7----7----|

G|------------------------|----------------------|------------------------|-----------------------|
D|------------------------|----------------2--3--|------------------------|-----------------------|
A|------------------------|----------2--3--------|------------------------|-----------------------|
E|--3----3-3-3--3----3----|----------------------|--7----7-7-7--7----7----|-3----3-3-3--3---3--5--|

G|------------------------|------------------------|------------------------|------------------------|
D|------------------------|------------------------|------------------------|------------------------|
A|------------------------|------------------------|------------------------|------------------------|
E|-3--3--3--3--3--3--3--3-|-3--3--3--3--3--3--3--3-|-5--5--5--5--5--5--5--5-|-7--7--7--7--7--7--7--7-|
                                                                                         
                                                                                        
  x2
G|------------------------|------------------------|------------------------|------------------------|
D|------------------------|------------------------|------------------------|------------------------|
A|------------------------|------------------------|------------------------|------------------------|
E|-3--3--3--3--3--3--3--3-|-3--3--3--3--3--3--3--3-|-5--5--5--5--5--5--5--5-|-7--7--7--7--7--7--7--7-|

 [Pre-Chorus]
G|------------------------------|-------------------------------|------------------------------------------|
D|------------------------------|-------------------------------|------------------------------------------|
A|------------------------------|-------------------------------|------------------------------------------|
E|--7--7-7-7--7-7-7--7-7-7--7-7-|--7--7-7-7--7-7-7--7-7-7-7-7-7-|--10--10-10-10--10-10-10--10-10-10--10-10-|

G|------------------------------|
D|------------------------------|
A|------------------------------|
E|--5--5-5-5--5-5-5--5-5-5--5-5-|

G|------------------------------|-------------------------------|----------------------------------|-----|
D|------------------------------|-------------------------------|----------------------------------|-----|
A|------------------------------|-------------------------------|----------------------------------|-----|
E|--7--7-7-7--7-7-7--7-7-7--7-7-|--7--7-7-7--7-7-7--7-7-7-7-7-7-|--10--10--10--10--10--10--10--10--|--5--|

 [Intro]
G|------------------------|------------------------|------------------------|------------------------|
D|------------------------|------------------------|------------------------|------------------------|
A|------------------------|------------------------|------------------------|------------------------|
E|-3--3--3--3--3--3--3--3-|-3--3--3--3--3--3--3--3-|-5--5--5--5--5--5--5--5-|-5--5--5--5--5--5--5--5-|

G|------------------------|------------------------|------------------------|------------------------|
D|------------------------|------------------------|------------------------|------------------------|
A|------------------------|------------------------|------------------------|------------------------|
E|-3--3--3--3--3--3--3--3-|-3--3--3--3--3--3--3--3-|-5--5--5--5--5--5--5--5-|-7--7--7--7--5--5--5--5-|

 [Verse]
G|------------------------|
D|------------------------|
A|------------------------|
E|--7----7-7-7--7----7----|

G|------------------------|----------------------|------------------------|-----------------------|
D|------------------------|----------------------|------------------------|-----------------------|
A|------------------------|----------------------|------------------------|-----------------------|
E|--3----3-3-3--3----3----|----------------------|--7----7-7-7--7----7----|-3----3-3-3--3---3--5--|


 [Bridge] x2
G|--------------------------|--------------------------|--------------------------|--------------------------|
D|--------------------------|--------------------------|--------------------------|--------------------------|
A|--------------------------|--------------------------|--------------------------|--------------------------|
E|--7--7--7--7--7--7--7--7--|--7--7--7--7--7--7--7--7--|--3--3--3--3--3--3--3--3--|--5--5--5--5--5--5--5--5--|

[Pre-Chorus]
G|------------------------------|-------------------------------|------------------------------------------|
D|------------------------------|-------------------------------|------------------------------------------|
A|------------------------------|-------------------------------|------------------------------------------|
E|--7--7-7-7--7-7-7--7-7-7--7-7-|--7--7-7-7--7-7-7--7-7-7-7-7-7-|--10--10-10-10--10-10-10--10-10-10--10-10-|

G|------------------------------|
D|------------------------------|
A|------------------------------|
E|--5--5-5-5--5-5-5--5-5-5--5-5-|

G|------------------------------|-------------------------------|----------------------------------|-----|
D|------------------------------|-------------------------------|----------------------------------|-----|
A|------------------------------|-------------------------------|----------------------------------|-----|
E|--7--7-7-7--7-7-7--7-7-7--7-7-|--7--7-7-7--7-7-7--7-7-7-7-7-7-|--10--10--10--10--10--10--10--10--|--5--|

 [Intro]
G|------------------------|------------------------|------------------------|------------------------|
D|------------------------|------------------------|------------------------|------------------------|
A|------------------------|------------------------|------------------------|------------------------|
E|-3--3--3--3--3--3--3--3-|-3--3--3--3--3--3--3--3-|-5--5--5--5--5--5--5--5-|-5--5--5--5--5--5--5--5-|

G|------------------------|------------------------|------------------------|------------------------|
D|------------------------|------------------------|------------------------|------------------------|
A|------------------------|------------------------|------------------------|------------------------|
E|-3--3--3--3--3--3--3--3-|-3--3--3--3--3--3--3--3-|-5--5--5--5--5--5--5--5-|-7--7--7--7--5--5--5--5-|

 [Solo Start]
G|-----------------------------|-----------------------------|
D|-----------------------------|-----------------------------|
A|-----------------------------|-----------------------------|
E|-10-----------------------10-|--10---7---10---13--12---10--|

[Solo] (Come in straight after Solo Start)
G|------------------------------|---------------------|
D|------------------------------|---------------------|
A|------------------------------|---------------------|
E|--7--7-7-7--7-7-7--7-7-7--10--|--------12--------7--|

G|-----------------------|--------------------|----------------------------|
D|-----------------------|--------------------|----------------------------|
A|-----------------------|--------------------|----------------------------|
E|----------7--7-7-7--3--|--------5--------3--|---------3—3-3-333--10----|

G|---------------------|-------------------------|-----------------------------|
D|---------------------|-------------------------|-----------------------------|
A|---------------------|-------------------------|-----------------------------|
E|--------12--------7--|----------7--7-7-7-7-7-7-|--10---7---10---13--12---10--|

G|------------------------------|---------------------|
D|------------------------------|---------------------|
A|------------------------------|---------------------|
E|--7--7-7-7--7-7-7--7-7-7--10--|--------12--------7--|

G|-----------------------|--------------------|----------------------------|
D|-----------------------|--------------------|----------------------------|
A|-----------------------|--------------------|----------------------------|
E|----------7--7-7-7--3--|--------5--------3--|---------3—3-3-333--10----|

G|---------------------|-------------------------|-----------------------------|
D|---------------------|-------------------------|-----------------------------|
A|---------------------|-------------------------|-----------------------------|
E|--------12--------7--|----------7--7-7-7-7-7-7-|--10---7---10---13--12---10--|

[Solo End]
G|------------------------|-----------------------|--------------------|
D|------------------------|-----------------------|--------------------|
A|------------------------|-----------------------|--------------------|
E|--3----3----3--3--3--7--|------7----7--7--7--0--|----0------------0--|

G|-------------------|------------------------|-----------------------|
D|-------------------|------------------------|-----------------------|
A|-------------------|------------------------|-----------------------|
E|----0--------------|--3----3----3--3--3--7--|------7----7--7--7--0--|

G|--------------------|--------------------|-----------------------|
D|--------------------|--------------------|-----------------------|
A|--------------------|--------------------|-----------------------|
E|----0------------0--|----0------------3--|------3----3--3--3--2--|

G|-----------------------|-----------------------|-----------------------|
D|-----------------------|-----------------------|-----------------------|
A|-----------------------|-----------------------|-----------------------|
E|------2----2--2--2--3--|------3----3--3--3--5--|------5----5--5--5--3--|

G|-------------------------------|---------------------------------|
D|-------------------------------|---------------------------------|
A|-------------------------------|---------------------------------|
E|-------------------3--3-3--3-6-|-----------------------6--6-6-6--|

 [Solo Start]
G|-----------------------------|-----------------------------|
D|-----------------------------|-----------------------------|
A|-----------------------------|-----------------------------|
E|--------------10-------------|--10---7---10---13--12---10--|

[Solo] (Come in straight after Solo Start)
G|------------------------------|---------------------|
D|------------------------------|---------------------|
A|------------------------------|---------------------|
E|--7--7-7-7--7-7-7--7-7-7--10--|--------12--------7--|

G|-----------------------|--------------------|----------------------------|
D|-----------------------|--------------------|----------------------------|
A|-----------------------|--------------------|----------------------------|
E|----------7--7-7-7--3--|--------5--------3--|---------3—3-3-333--10----|

G|---------------------|-------------------------|-----------------------------|
D|---------------------|-------------------------|-----------------------------|
A|---------------------|-------------------------|-----------------------------|
E|--------12--------7--|----------7--7-7-7-7-7-7-|--10---7---10---13--12---10--|

G|------------------------------|---------------------|
D|------------------------------|---------------------|
A|------------------------------|---------------------|
E|--7--7-7-7--7-7-7--7-7-7--10--|--------12--------7--|

G|-----------------------|--------------------|----------------------------|
D|-----------------------|--------------------|----------------------------|
A|-----------------------|--------------------|----------------------------|
E|----------7--7-7-7--3--|--------5--------3--|---------3—3-3-333--10----|

G|---------------------|-------------------------|-----------------------------|-----------------------------|
D|---------------------|-------------------------|-----------------------------|-----------------------------|
A|---------------------|-------------------------|-----------------------------|-----------------------------|
E|--------12--------7--|----------7--7-7-7-7-7-7-|--10---7---10---13--12---10--|--10---7---10---13--12---10--|

G|------------------------|------------------------|------------------------|------------------------|
D|------------------------|------------------------|------------------------|------------------------|
A|------------------------|------------------------|------------------------|------------------------|
E|-3--3--3--3--3--3--3--3-|-3--3--3--3--3--3--3--3-|-5--5--5--5--5--5--5--5-|-7--7--7--7--7--7--7--7-|

G|------------------------|------------------------|------------------------|------------------------|
D|------------------------|------------------------|------------------------|------------------------|
A|------------------------|------------------------|------------------------|------------------------|
E|-3--3--3--3--3--3--3--3-|-3--3--3--3--3--3--3--3-|-5--5--5--5--5--5--5--5-|-7--7--7--7--7--7--7--7-|

 [Pre-Chorus]
G|------------------------------|-------------------------------|------------------------------------------|
D|------------------------------|-------------------------------|------------------------------------------|
A|------------------------------|-------------------------------|------------------------------------------|
E|--7--7-7-7--7-7-7--7-7-7--7-7-|--7--7-7-7--7-7-7--7-7-7-7-7-7-|--10--10-10-10--10-10-10--10-10-10--10-10-|

G|------------------------------|
D|------------------------------|
A|------------------------------|
E|--5--5-5-5--5-5-5--5-5-5--5-5-|

G|------------------------------|-------------------------------|----------------------------------|-----|
D|------------------------------|-------------------------------|----------------------------------|-----|
A|------------------------------|-------------------------------|----------------------------------|-----|
E|--7--7-7-7--7-7-7--7-7-7--7-7-|--7--7-7-7--7-7-7--7-7-7-7-7-7-|--10--10--10--10--10--10--10--10--|--5--|

G|------------------------|------------------------|------------------------|------------------------|
D|------------------------|------------------------|------------------------|------------------------|
A|------------------------|------------------------|------------------------|------------------------|
E|-3--3--3--3--3--3--3--3-|-3--3--3--3--3--3--3--3-|-5--5--5--5--5--5--5--5-|-5--5--5--5--5--5--5--5-|

G|------------------------|------------------------|------------------------|------------------------|
D|------------------------|------------------------|------------------------|------------------------|
A|------------------------|------------------------|------------------------|------------------------|
E|-3--3--3--3--3--3--3--3-|-3--3--3--3--3--3--3--3-|-5--5--5--5--5--5--5--5-|-7--7--7--7--5--5--5--5-|

G|------------------------|------------------------|------------------------|------------------------|
D|------------------------|------------------------|------------------------|------------------------|
A|------------------------|------------------------|------------------------|------------------------|
E|-3--3--3--3--3--3--3--3-|-3--3--3--3--3--3--3--3-|-5--5--5--5--5--5--5--5-|-5--5--5--5--5--5--5--5-|

G|------------------------|------------------------|------------------------|------------------------|-----|
D|------------------------|------------------------|------------------------|------------------------|-----|
A|------------------------|------------------------|------------------------|------------------------|-----|
E|-3--3--3--3--3--3--3--3-|-3--3--3--3--3--3--3--3-|-5--5--5--5--5--5--5--5-|-7--7--7--7--5--5--5--5-|-5---|

G|------------------------|------------------------|------------------------|------------------------|
D|------------------------|------------------------|------------------------|------------------------|
A|------------------------|------------------------|------------------------|------------------------|
E|-3--3--3--3--3--3--3--3-|-3--3--3--3--3--3--3--3-|-5--5--5--5--5--5--5--5-|-5--5--5--5--5--5--5--5-|

G|------------------------|------------------------|------------------------|------------------------|
D|------------------------|------------------------|------------------------|------------------------|
A|------------------------|------------------------|------------------------|------------------------|
E|-3--3--3--3--3--3--3--3-|-3--3--3--3--3--3--3--3-|-5--5--5--5--5--5--5--5-|-7--7--7--7--5--5--5--5-|

G|------------------------|------------------------|------------------------|------------------------|
D|------------------------|------------------------|------------------------|------------------------|
A|------------------------|------------------------|------------------------|------------------------|
E|-3--3--3--3--3--3--3--3-|-3--3--3--3--3--3--3--3-|-5--5--5--5--5--5--5--5-|-5--5--5--5--5--5--5--5-|

G|------------------------|------------------------|------------------------|------------------------|-----|
D|------------------------|------------------------|------------------------|------------------------|-----|
A|------------------------|------------------------|------------------------|------------------------|-----|
E|-3--3--3--3--3--3--3--3-|-3--3--3--3--3--3--3--3-|-5--5--5--5--5--5--5--5-|-7--7--7--7--5--5--5--5-|-5---|

G|----------------------------------|----------------------------------|
D|----------------------------------|----------------------------------|
A|----------------------------------|----------------------------------|
E|3------5-----------------3------4-|-5-----7--------------------------|

G|-------------------------------|
D|-------------------------------|
A|-------------------------------|
E|---------3—3-3-3-3-3—10----|

G|---------------------|-------------------------|-----------------------------|
D|---------------------|-------------------------|-----------------------------|
A|---------------------|-------------------------|-----------------------------|
E|--------12--------7--|----------7--7-7-7-7-7-7-|--10---7---10---13--12---10--|

End

Phew This Took Ages. If you find this tab is wrong can you please contact me so i can correct it.
Suggest correction
comments
print report bad tab
19 comments total. Showing first comments.
+1 reply
bikenutter 292 Jan 25, 2006 02:19 PM

nice tab - got a little bit lost in it sometimes, but good anyways

oh and the last note is wrong - i think it's a 7 on the end as well, but i may be wrong...

0 reply
Stagg_Man 10 Feb 21, 2006 06:49 AM

Hiya. I wrote this tab but i hadnt logged in when i posted it. It's my first time tabbing but it seems It's ok ne way.

0 reply
Lurkinsdontwash 10 Mar 26, 2006 09:33 AM

is it standard tuning?

guest
You may want to rate the tab now too:
select rating
Wanna post a correction for this tab? Suggest correction