Oops, an error
Loading. Please wait.
5,621 views 3 this week
4 commentsread comments
1 2 3 4 5
x 6
add to favorites
guitar tuner
Autoscroll
slow
fast
+/-
esc
set tempo
stop
Author
Difficulty
Tuning
File Format
Filesize
Instruments
intermediate
C G C F A D
.gp5
219 Kb
lead_guitars
"Tears Dont Fall"
demo version
Play now

or get full version for Free

×
Get full version now!
Learn and play this song
in Tab Pro
Try for free

or get $10 off Welcome Bonus

Get welcome bonus
Get access to Tab Pro version of “Tears Dont Fall”!
Tab Pro is a premium guitar tab service, available on PC, Mac, iOS and Android
TRY FOR FREE
Your download will start in 7 seconds
×
Like this song? We have more! Follow us on Facebook for daily tips, lessons and other guitar-related content.
To download “Tears Dont Fall” Guitar Pro tab click button below
Please note that you must have Guitar Pro software installed on your
computer in order to view this file.
Suggest correction
comments
report bad tab
4 comments total. Showing first comments.
0 reply
dkm817 7,189 Feb 13, 2013 11:59 AM

This was picture perfect. Incredible job!

0 reply
Fp020 166 Apr 29, 2013 09:06 AM

excelent job man... just perfect

0 reply
gontzhua 162 May 27, 2013 08:12 PM

I'm not really convinced about the solo... is just too difficult, and the song is really easy, I mean, check this tab...
Padge
D|-20p17----17-------20p17----17-------20p17----17-------20p17--------|
A|-------20----20p17-------20----20p17-------20----20p17--------20b~~-|
F|--------------------------------------------------------------------|
C|--------------------------------------------------------------------|
G|--------------------------------------------------------------------|
C|--------------------------------------------------------------------|

D|-20p17----17-------20p17----17-------20p17-----17---------------------|
A|-------20----20p17-------20----20p17--------20----20p17-20p17---------|
F|--------------------------------------------------------------19br~~~-|
C|----------------------------------------------------------------------|
G|----------------------------------------------------------------------|
C|----------------------------------------------------------------------|

D|-------20p17----17--------------------------------------------------|
A|-20p17-------20----20p17--20p17----17-------------------------------|
F|--------------------------------19----19p17-19p17----17----------17-|
C|--------------------------------------------------19----19p17-19~---|
G|--------------------------------------------------------------------|
C|--------------------------------------------------------------------|

D|----------------------------------------------------------------------17----------|
A|-------------------------------------------------------20p17h20p17h20-------------|
F|---------------------17h19p17--------------------------------------------8-7~~~~--|
C|-19-17-17b19---17h19----------19p17--17h19-19-17h19p17----------------------------|
G|----------------------------------------------------------------------------------|
C|----------------------------------------------------------------------------------|

D|-------------------------------------------------------------|
A|-------------gradually-bend-and-release----------------------|
F|-7-7-7-7-7-7-7b-7b-7b-7b-7b-7b-7r-7r-7r-7r-7r-7r-7-7-7-7-7-7-|
C|-------------------------------------------------------------|
G|-------------------------------------------------------------|
C|-------------------------------------------------------------|

D|--------------------------------------------------------------------------------------|
A|--------------------------------------------------------------------------------------|
F|-7p5---5~---5-7b-7p5---5-7b-7p5---5-7b-7p5---5----9h10p9-7h9p7-5h7p5---picksl.--------|
C|-----7----7----------7----------7----------7---5\--------------------7~-x\\\\-3~~~~~~-|
G|------------------------------------------------------------------------x\\\\-1~~~~~~-|
C|--------------------------------------------------------------------------------------|

guest
You may want to rate the tab now too:
select rating