Oops, an error
Loading. Please wait.

Tears Dont Fall Bass Tab

version 2
version 2
22,591 views 3 this week
4 commentsread comments
1 2 3 4 5
worth learning
x 6
add to favorites
launch autoscroll
font size
0
reset
guitar tuner
Tab Pro tools
  • play this tab
  • loop segment
  • change instrument
  • show fretboard
  • metronome
×
Best way to learn
"Tears Dont Fall"
Autoscroll
slow
fast
+/-
esc
set tempo
stop
Contributor
----------------------------------------------------------------------------
               Bullet For My Valentine-Tears Don't Fall
----------------------------------------------------------------------------
Tabbed by:Cody

Tuning:CGCF Low to High

I ear transcribed this song, so i dont kno if its rite, so plz rate.

Update:  Please look at the other tablature for this song, this one is fucked up!  So yeah.

Intro (no bass)

Chorus
----------------|----------------|----------------|----------------|
----------------|----------------|----------------|----------------|
----------------|----------------|----------------|----------------|
-3-3-3-3-3-3-3-3|-3-3-3-3-3-3-3-3|-5-5-5-5-5-5-5-5|-5-5-5-5-5555555|

----------------|----------------|----------------|----------------|
----------------|----------------|----------------|----------------|
----------------|----------------|----------------|----------------|
-3-3-3-3-3-3-3-3|-3-3-3-3-3-3-3-3|-5-5-5-5-5-5-5-5|-6-6-6-6-4-4-4-4|

----------------|----------------|----------------|----------------|
----------------|----------------|----------------|----------------|
----------------|----------------|----------------|----------------|
-3-3-3-3-3-3-3-3|-3-3-3-3-3-3-3-3|-5-5-5-5-5-5-5-5|-5-5-5-5-5555555|

----------------|----------------|----------------|----------------|
----------------|----------------|----------------|----------------|
----------------|----------------|----------------|----------------|
-3-3-3-3-3-3-3-3|-3-3-3-3-3-3-3-3|-5-5-5-5-5-5-5-5|-6-6-6-6-4-4-4-4|

Frill
-t-|---------|---------|-------|---------|---------|
-s-|---------|---------|----2h3|---------|---------|
-e-|---------|---------|-2h3---|---------|---------|
-r-|-6-66-6-6|-2-22-2-2|-------|-6-66-6-6|-2-22-2-2|

Bridge
----------------|----------------|----------------|----------------|
----------------|----------------|----------------|----------------|
----------------|----------------|----------------|----------------|
-6-6-6-6-6-6-6-6|-6-6-6-6-6-6-6-6|-8-8-8-8-8-8-8-8|-9-9-9-9-9-9-9-9|

----------------|----------------|----------------|----------------|
----------------|----------------|----------------|----------------|
----------------|----------------|----------------|----------------|
-6-6-6-6-6-6-6-6|-6-6-6-6-6-6-6-6|-8-8-8-8-8-8-8-8|-9-9-9-9-6-6-6-6|

Pre-chorus
(use galloping like action for this part)
--------------------------|------------------------|
--------------------------|------------------------|
--------------------------|------------------------|
-6-66-66-66-66-66-66-66-66|-77-77-77-77-11-11-11-11|

------------------------|------------------|
------------------------|------------------|
------------------------|------------------|
-66-66-66-66-66-66-66-66|-7-7-7-7-7-7-7-7-1|

Chorus
----------------|----------------|----------------|----------------|
----------------|----------------|----------------|----------------|
----------------|----------------|----------------|----------------|
-3-3-3-3-3-3-3-3|-3-3-3-3-3-3-3-3|-5-5-5-5-5-5-5-5|-5-5-5-5-5555555|

----------------|----------------|----------------|----------------|
----------------|----------------|----------------|----------------|
----------------|----------------|----------------|----------------|
-3-3-3-3-3-3-3-3|-3-3-3-3-3-3-3-3|-5-5-5-5-5-5-5-5|-6-6-6-6-4-4-4-4|

----------------|----------------|----------------|----------------|
----------------|----------------|----------------|----------------|
----------------|----------------|----------------|----------------|
-3-3-3-3-3-3-3-3|-3-3-3-3-3-3-3-3|-5-5-5-5-5-5-5-5|-5-5-5-5-5555555|

----------------|----------------|----------------|----------------|
----------------|----------------|----------------|----------------|
----------------|----------------|----------------|----------------|
-3-3-3-3-3-3-3-3|-3-3-3-3-3-3-3-3|-5-5-5-5-5-5-5-5|-6-6-6-6-4-4-4-4|

Frill
-t-|---------|---------|-------|---------|---------|
-s-|---------|---------|----2h3|---------|---------|
-e-|---------|---------|-2h3---|---------|---------|
-r-|-6-66-6-6|-2-22-2-2|-------|-6-66-6-6|-2-22-2-2|

Bridge
----------------|----------------|----------------|----------------|
----------------|----------------|----------------|----------------|
----------------|----------------|----------------|----------------|
-6-6-6-6-6-6-6-6|-6-6-6-6-6-6-6-6|-8-8-8-8-8-8-8-8|-9-9-9-9-9-9-9-9|

----------------|----------------|----------------|----------------|
----------------|----------------|----------------|----------------|
----------------|----------------|----------------|----------------|
-6-6-6-6-6-6-6-6|-6-6-6-6-6-6-6-6|-8-8-8-8-8-8-8-8|-9-9-9-9-6-6-6-6|

Pre-chorus
(use galloping like action for this part)
--------------------------|------------------------|
--------------------------|------------------------|
--------------------------|------------------------|
-6-66-66-66-66-66-66-66-66|-77-77-77-77-11-11-11-11|

------------------------|------------------|
------------------------|------------------|
------------------------|------------------|
-66-66-66-66-66-66-66-66|-7-7-7-7-7-7-7-7-1|

Chorus
----------------|----------------|----------------|----------------|
----------------|----------------|----------------|----------------|
----------------|----------------|----------------|----------------|
-3-3-3-3-3-3-3-3|-3-3-3-3-3-3-3-3|-5-5-5-5-5-5-5-5|-5-5-5-5-5555555|

----------------|----------------|----------------|----------------|
----------------|----------------|----------------|----------------|
----------------|----------------|----------------|----------------|
-3-3-3-3-3-3-3-3|-3-3-3-3-3-3-3-3|-5-5-5-5-5-5-5-5|-6-6-6-6-4-4-4-4|

----------------|----------------|----------------|----------------|
----------------|----------------|----------------|----------------|
----------------|----------------|----------------|----------------|
-3-3-3-3-3-3-3-3|-3-3-3-3-3-3-3-3|-5-5-5-5-5-5-5-5|-5-5-5-5-5555555|

----------------|----------------|----------------|----------------|
----------------|----------------|----------------|----------------|
----------------|----------------|----------------|----------------|
-3-3-3-3-3-3-3-3|-3-3-3-3-3-3-3-3|-5-5-5-5-5-5-5-5|-6-6-6-6-4-4-4-4|

Guitar Solo
-t-|---|-t-|-----------------|
-s-|---|-s-|-----------------|
-e-|---|-e-|-----------------|
-r-|-6-|-r-|-10-7-10-13-12-10|

--------------------------|------------|
--------------------------|------------|
--------------------------|------------|
-6-66-66-66-66-66-66-66-66|-10-10-12-12|

--------------------------|--------|
--------------------------|--------|
--------------------------|--------|
-6-66-66-66-66-66-66-66-66|-3-3-5-5|

--------------------------|------------|
--------------------------|------------|
--------------------------|------------|
-6-66-66-66-66-66-66-66-66|-10-10-12-12|

--------------------------|-----------------|
--------------------------|-----------------|
--------------------------|-----------------|
-6-66-66-66-66-66-66-66-66|-10-7-10-13-12-10|

--------------------------|------------|
--------------------------|------------|
--------------------------|------------|
-6-66-66-66-66-66-66-66-66|-10-10-12-12|

--------------------------|--------|
--------------------------|--------|
--------------------------|--------|
-6-66-66-66-66-66-66-66-66|-3-3-5-5|

--------------------------|------------|
--------------------------|------------|
--------------------------|------------|
-6-66-66-66-66-66-66-66-66|-10-10-12-12|

--------------------------|-----------------|
--------------------------|-----------------|
--------------------------|-----------------|
-6-66-66-66-66-66-66-66-66|-10-7-10-13-12-10|

Frill #2
------|--------|--------|
------|--------|--------|
------|----775-|----775-|
-3~-5~|-0-0---5|-0-0---5|

------|--------|--------|
------|--------|--------|
------|----775-|----775-|
-3~-5~|-0-0---5|-0-0---5|

---------------------|
---------------------|
---------------------|
-3~-1~-3~-5~-3~-5~-6~|

Guitar Solo #2
-t-|------|
-s-|------|
-e-|------|
-r-|-6-6-6|

--------------------------|------------|
--------------------------|------------|
--------------------------|------------|
-6-66-66-66-66-66-66-66-66|-10-10-12-12|

--------------------------|--------|
--------------------------|--------|
--------------------------|--------|
-6-66-66-66-66-66-66-66-66|-3-3-5-5|

--------------------------|------------|
--------------------------|------------|
--------------------------|------------|
-6-66-66-66-66-66-66-66-66|-10-10-12-12|

--------------------------|-----------------|
--------------------------|-----------------|
--------------------------|-----------------|
-6-66-66-66-66-66-66-66-66|-10-7-10-13-12-10|

--------------------------|------------|
--------------------------|------------|
--------------------------|------------|
-6-66-66-66-66-66-66-66-66|-10-10-12-12|

--------------------------|--------|
--------------------------|--------|
--------------------------|--------|
-6-66-66-66-66-66-66-66-66|-3-3-5-5|

--------------------------|------------|
--------------------------|------------|
--------------------------|------------|
-6-66-66-66-66-66-66-66-66|-10-10-12-12|

--------------------------|-----------------|--------------------|
--------------------------|-----------------|--------------------|
--------------------------|-----------------|--------------------|
-6-66-66-66-66-66-66-66-66|-10-7-10-13-12-10|-10-7-10-13-12-10-7~|

----------------|----------------|----------------|----------------|
----------------|----------------|----------------|----------------|
----------------|----------------|----------------|----------------|
-6-6-6-6-6-6-6-6|-6-6-6-6-6-6-6-6|-8-8-8-8-8-8-8-8|-9-9-9-9-9-9-9-9|

----------------|----------------|----------------|----------------|
----------------|----------------|----------------|----------------|
----------------|----------------|----------------|----------------|
-6-6-6-6-6-6-6-6|-6-6-6-6-6-6-6-6|-8-8-8-8-8-8-8-8|-9-9-9-9-6-6-6-6|

Pre-chorus
(use galloping like action for this part)
--------------------------|------------------------|
--------------------------|------------------------|
--------------------------|------------------------|
-6-66-66-66-66-66-66-66-66|-77-77-77-77-11-11-11-11|

------------------------|------------------|
------------------------|------------------|
------------------------|------------------|
-66-66-66-66-66-66-66-66|-7-7-7-7-7-7-7-7-1|

Chorus
----------------|----------------|----------------|----------------|
----------------|----------------|----------------|----------------|
----------------|----------------|----------------|----------------|
-3-3-3-3-3-3-3-3|-3-3-3-3-3-3-3-3|-5-5-5-5-5-5-5-5|-5-5-5-5-5555555|

----------------|----------------|----------------|----------------|
----------------|----------------|----------------|----------------|
----------------|----------------|----------------|----------------|
-3-3-3-3-3-3-3-3|-3-3-3-3-3-3-3-3|-5-5-5-5-5-5-5-5|-6-6-6-6-4-4-4-4|

----------------|----------------|----------------|----------------|
----------------|----------------|----------------|----------------|
----------------|----------------|----------------|----------------|
-3-3-3-3-3-3-3-3|-3-3-3-3-3-3-3-3|-5-5-5-5-5-5-5-5|-5-5-5-5-5555555|

----------------|----------------|----------------|----------------|
----------------|----------------|----------------|----------------|
----------------|----------------|----------------|----------------|
-3-3-3-3-3-3-3-3|-3-3-3-3-3-3-3-3|-5-5-5-5-5-5-5-5|-6-6-6-6-4-4-4-4|

-t-|----------------|----------------|----------------|----------------|
-s-|----------------|----------------|----------------|----------------|
-e-|----------------|----------------|----------------|----------------|
-r-|-3-3-3-3-3-3-3-3|-3-3-3-3-3-3-3-3|-5-5-5-5-5-5-5-5|-5-5-5-5-5555555|

----------------|----------------|----------------|----------------|
----------------|----------------|----------------|----------------|
----------------|----------------|----------------|----------------|
-3-3-3-3-3-3-3-3|-3-3-3-3-3-3-3-3|-5-5-5-5-5-5-5-5|-6-6-6-6-4-4-4-4|

----------------|----------------|----------------|----------------|
----------------|----------------|----------------|----------------|
----------------|----------------|----------------|----------------|
-3-3-3-3-3-3-3-3|-3-3-3-3-3-3-3-3|-5-5-5-5-5-5-5-5|-5-5-5-5-5555555|

----------------|----------------|----------------|----------------|
----------------|----------------|----------------|----------------|
----------------|----------------|----------------|----------------|
-3-3-3-3-3-3-3-3|-3-3-3-3-3-3-3-3|-5-5-5-5-5-5-5-5|-6-6-6-6-4-4-4-4|

Frill #3
------------------|
------------------|
------------------|
-3~-5~-3~-5~-6~-4~|

Ourto
--------------------------|------------|
--------------------------|------------|
--------------------------|------------|
-6-66-66-66-66-66-66-66-66|-10-10-12-12|

--------------------------|-------------------|
--------------------------|-------------------|
--------------------------|-------------------|
-6-66-66-66-66-66-66-66-66|-10-7-10-13-12-10-7|

|~=hold note
|h=hammer on

============================================================================


comments
print report bad tab
4 comments total. Showing first comments.
+1 reply
badhabit000 wrote on December 4 2006, 05:34 pm

the tuning for ALL BFMV songs is drop C.

0 reply
Satan Man wrote on March 11 2007, 10:34 am

thats what hes put

0 reply
bassplaya53 wrote on November 6 2007, 12:52 am

the other version for this is a bit better but this tab is good as far as typing it out goes. 5 stars

I want to post or [tab]
guest
You may want to rate the tab now too:
select rating
Please do not post tabs as comments. Select "correction" instead!