Oops, an error
Loading. Please wait.

Tears Dont Fall Tab

version 2
243,093 views 168 this week
14 commentsread comments
1 2 3 4 5
accurate
x 13
add to favorites
launch autoscroll
font size
0
reset
how to read this tab
guitar tuner
Autoscroll
slow
fast
+/-
esc
set tempo
stop
Help us to improve Ultimate-Guitar.com Take our survey!
×
Author
Tuning
C G C F A D
[Intro]

(with chorus and delay)

d|------------------------------------------------------------------------------------------------|
A|--------------------------------------------------------------------------------6h8-------------|
F|------9------9----9-------9----10----9------------5-------5-----5------7----5h7-----------------| x4
C|-7-7----7-7----7----7--7----7-----7----7-----3-3-----3-3----3-----5-5----5----------------------|
G|------------------------------------------------------------------------------------------------|
C|------------------------------------------------------------------------------------------------|

3rd time guitar 2 comes in:
d|---------------------------------------------|
A|---------------------------------------------|
F|---------------------------------------------|
C|-10-(16 times)--12-(8 times)-9-(8 times)-----|
G|---------------------------------------------|
C|---------------------------------------------|

Guitar 1
d|-----------------------------------------------|
A|-----------------------------------------------|
F|-----------------------------------------------|
C|------3----------5---------3----------5--7--5--|- figure timing out yourselves
G|------3----------5---------3----------5--7--5--|
C|------3----------5---------3----------5--7--5--|

Guitar 2:
d|--------------------------------------------------------------|
A|--------------------------------------------------------------|
F|-10-10-10-10--9--9--9--9-10-10-10-10--7-7-7-7-5-5-5-5-4-4-4-4-|
C|-10-10-10-10-10-10-10-10-10-10-10-10--------------------------|
G|--------------------------------------------------------------|
C|--------------------------------------------------------------|

d|--------------------------------------------------------------|
A|--------------------------------------------------------------|
F|-10-10-10-10--9--9--9--9-10-10-10-10--7-7-7-7-9-9-9-9-4-4-4-4-|
C|-10-10-10-10-10-10-10-10-10-10-10-10--------------------------|
G|--------------------------------------------------------------|
C|--------------------------------------------------------------|


[Pre-Verse]

d|-----------------------------------|
A|-----------------------------------|
F|-----------------------------------|
C|7^---------------------- <- hit 16-|x quickly bending slightly more each time
G|-----------------------------------|
C|-----------------------------------|


[Verse 1]

Guitar 1:
d|------------------------------------------------------------------------------------------------|
A|--------------------------------------------------------------------------------6h8-------------|
F|------9------9----9-------9----10----9------------5-------5-----5------7----5h7-----------------| x4
C|-7-7----7-7----7----7--7----7-----7----7-----3-3-----3-3----3-----5-5----5----------------------|
G|------------------------------------------------------------------------------------------------|
C|------------------------------------------------------------------------------------------------|

d|-------------------------------------|
A|--------8-----------------8----------|
F|---4-5----5--4--5----4-5----5-4-5--7-|
C|------------------7------------------|
G|-------------------------------------|
C|-------------------------------------|

Guitar 2 (comes in 3rd time):
d|-----------------------------------------------------|
A|--5*-------------------------------------------------|
F|-----5*----------------------------------------------|
C|-----------------------------------------------------|
G|-----------------------------------------------------|
C|----------7--(16 times)---3--(8 times)--5------------|(8 times)

d|-------------------------------------------------------------------|
A|-------------------------------------------------------------------|
F|-------------------------------------------------------------------|
C|-------------------------------------------------------------------|
G|-------------------------------------------------------------------|
C|-7--7-7-7-(8 times)--10--10-10-10--(4 times)---3--3-3-3------------|(4 times)
       ^triplets             ^ triplets              ^ triplets

           
[Chorus]

Guitar 1
d|-----------------------------------------------|
A|-----------------------------------------------|
F|-----------------------------------------------|
C|------3----------5---------3----------5--7--5--|- figure timing out yourselves
G|------3----------5---------3----------5--7--5--|
C|------3----------5---------3----------5--7--5--|

Guitar 2:
d|--------------------------------------------------------------|
A|--------------------------------------------------------------|
F|-10-10-10-10--9--9--9--9-10-10-10-10--7-7-7-7-5-5-5-5-4-4-4-4-|
C|-10-10-10-10-10-10-10-10-10-10-10-10--------------------------|
G|--------------------------------------------------------------|
C|--------------------------------------------------------------|

d|--------------------------------------------------------------|
A|--------------------------------------------------------------|
F|-10-10-10-10--9--9--9--9-10-10-10-10--7-7-7-7-9-9-9-9-4-4-4-4-|
C|-10-10-10-10-10-10-10-10-10-10-10-10--------------------------|
G|--------------------------------------------------------------|
C|--------------------------------------------------------------|


[Pre-Verse]

d|-----------------------------------|
A|-----------------------------------|
F|-----------------------------------|
C|7^---------------------- <- hit 16-|x quickly bending slightly more each time
G|-----------------------------------|
C|-----------------------------------|


[Verse 2]

Guitar 1:
d|------------------------------------------------------------------------------------------------|
A|--------------------------------------------------------------------------------6h8-------------|
F|------9------9----9-------9----10----9------------5-------5-----5------7----5h7-----------------| x4
C|-7-7----7-7----7----7--7----7-----7----7-----3-3-----3-3----3-----5-5----5----------------------|
G|------------------------------------------------------------------------------------------------|
C|------------------------------------------------------------------------------------------------|

d|-------------------------------------|
A|--------8-----------------8----------|
F|---4-5----5--4--5----4-5----5-4-5--7-|
C|------------------7------------------|
G|-------------------------------------|
C|-------------------------------------|

Guitar 2 (comes in 3rd time):
d|-----------------------------------------------------|
A|--5*-------------------------------------------------|
F|-----5*----------------------------------------------|
C|-----------------------------------------------------|
G|-----------------------------------------------------|
C|----------7--(16 times)---3--(8 times)--5------------|(8 times)

d|-------------------------------------------------------------------|
A|-------------------------------------------------------------------|
F|-------------------------------------------------------------------|
C|-------------------------------------------------------------------|
G|-------------------------------------------------------------------|
C|-7--7-7-7-(8 times)--10--10-10-10--(4 times)---3--3-3-3------------|(4 times)
       ^triplets             ^ triplets              ^ triplets


[Chorus]

Guitar 1
d|------------------------------------------|
A|------------------------------------------|
F|------------------------------------------|
C|------3----------5---------3----------5---| <- figure timing out yourselves
G|------3----------5---------3----------5---|
C|------3----------5---------3----------5---|

Guitar 2:
d|--------------------------------------------------------------|
A|--------------------------------------------------------------|
F|-10-10-10-10--9--9--9--9-10-10-10-10--7-7-7-7-5-5-5-5-4-4-4-4-|
C|-10-10-10-10-10-10-10-10-10-10-10-10--------------------------|
G|--------------------------------------------------------------|
C|--------------------------------------------------------------|

d|--------------------------------------------------------------|
A|--------------------------------------------------------------|
F|-10-10-10-10--9--9--9--9-10-10-10-10--7-7-7-7-9-9-9-9-4-4-4-4-|
C|-10-10-10-10-10-10-10-10-10-10-10-10--------------------------|
G|--------------------------------------------------------------|
C|--------------------------------------------------------------|


[Bridge]

Both Guitars:
d|-----------------------------------------------------------------|
A|-----------------------------------------------------------------|
F|-----------------------------------------------------------------|
C|-------------------------------------------10--9--10--13--12--10-|
G|-------------------------------------------10--9--10--13--12--10-|
C:7--7-7-7-7-7-7-7-7-(play a bunch of times)-10--9--10--13--12--10-|

Guitar one
d|--------------------------------------------------------------------|
A|--------------------------------------------------------------------|
F|-------------------9-7--5-7--7-9-5----------------------------------|
C|------------------------------------------------5-3-2-3--2-3-2------|
G|--------------------------------------------------------------------|
C|-7--7-7-7-7-7-7-7------------------7--7-7-7-------------------------|
                                        ^triplet

d|---------------------------------------------------------------------|
A|---------------------------------------------------------------------|
F|-------------------9-7--5-7--7-9-5-----------------------------------|
C|-----------------------------------------------10--9--10--13--12--10-|
G|-----------------------------------------------10--9--10--13--12--10-|
C|-7--7-7-7-7-7-7-7------------------7--7-7-7----10--9--10--13--12--10-|
                                        ^triplet
Guitar 2:
d|-----------------------------------------------------------|
A|-----------------------------------------------------------|
F|-------------------10-9-7-9-9-10-7-------------------------|
C|---------------------------------------------5-3-2-3-------|
G|----------------------------------------------------3-5-3--|
C|-7--7-7-7-7-7-7-7-------------------7--7-7-7---------------|
                                        ^triplet

Guitar 2:
d|----------------------------------------------------------------------|
A|----------------------------------------------------------------------|
F|-------------------10-9-7-9-9-10-7------------------------------------|
C|------------------------------------------------10--9--10--13--12--10-|
G|------------------------------------------------10--9--10--13--12--10-|
C|-7--7-7-7-7-7-7-7-------------------7--7-7-7----10--9--10--13--12--10-|
                                        ^triplet
2nd half of bridge:

Guitar 1:
d|---------------------------------------------------------------|
A|---------------------------------------------------------------|
F|---------------------------------------------------------------|
C|--3-3-3-3-3-3-3-3-7-7-7-7-7-7-7-7-0-0---7-7--5---0-0--7-7--5---|
G|--3-3-3-3-3-3-3-3-7-7-7-7-7-7-7-7-0-0----------7-0-0---------7-|
C|--3-3-3-3-3-3-3-3-7-7-7-7-7-7-7-7-0-0------------0-0-----------|

Guitar 2:
d|-------------------------------------------------------------|
A|-------------------------------------------------------------|
F|---------------------------------------5-5-4---------5-5-4---|
C|--3-3-3-3-3-3-3-3-7-7-7-7-7-7-7-7-0-0--------5---0-0-------5-|
G|--3-3-3-3-3-3-3-3-7-7-7-7-7-7-7-7-0-0------------0-0---------|
C|--3-3-3-3-3-3-3-3-7-7-7-7-7-7-7-7-0-0------------0-0---------|

3rd time:

Both guitars:
d|---------------------------------|
A|---------------------------------|
F|---------------------------------|
C|-3---2---3---5---3----6--------7-|
G|-3---2---3---5---3----6--------7-|
C|-3---2---3---5---3----6--------7-|


[Pre-Solo]

d|-------------------------------|
A|-------------------------------|
F|-------------------------------|
C|-------------------------7-7-7-|
G|-------------------------7-7-7-|
C|-7---7-7-7-7-7-7-7-7-----7-7-7-|


[Solo]

Gutiar 1:
1 lazy to sit here playing scales just tremelo pick alot

Guitar 2 & 3:

Guitar 2:
d|--------------------------------------------------------------------|
A|--------------------------------------------------------------------|
F|-------------------9-7--5-7--7-9-5----------------------------------|
C|------------------------------------------------5-3-2-3--2-3-2------|
G|--------------------------------------------------------------------|
C|-7--7-7-7-7-7-7-7------------------7--7-7-7-------------------------|
                                        ^triplet

d|---------------------------------------------------------------------|
A|---------------------------------------------------------------------|
F|-------------------9-7--5-7--7-9-5-----------------------------------|
C|-----------------------------------------------10--9--10--13--12--10-|
G|-----------------------------------------------10--9--10--13--12--10-|
C|-7--7-7-7-7-7-7-7------------------7--7-7-7----10--9--10--13--12--10-|
                                        ^triplet
Guitar 3:
d|-----------------------------------------------------------|
A|-----------------------------------------------------------|
F|-------------------10-9-7-9-9-10-7-------------------------|
C|---------------------------------------------5-3-2-3-------|
G|----------------------------------------------------3-5-3--|
C|-7--7-7-7-7-7-7-7-------------------7--7-7-7---------------|
                                        ^triplet

Guitar 2:
d|----------------------------------------------------------------------|
A|----------------------------------------------------------------------|
F|-------------------10-9-7-9-9-10-7------------------------------------|
C|------------------------------------------------10--9--10--13--12--10-|
G|------------------------------------------------10--9--10--13--12--10-|
C|-7--7-7-7-7-7-7-7-------------------7--7-7-7----10--9--10--13--12--10-|
                                        ^triplet

last time repeat the last chord section twice


[Final Verse]

Guitar 1:
d|------------------------------------------------------------------------------------------------|
A|--------------------------------------------------------------------------------6h8-------------|
F|------9------9----9-------9----10----9------------5-------5-----5------7----5h7-----------------| x4
C|-7-7----7-7----7----7--7----7-----7----7-----3-3-----3-3----3-----5-5----5----------------------|
G|------------------------------------------------------------------------------------------------|
C|------------------------------------------------------------------------------------------------|

d|-------------------------------------|
A|--------8-----------------8----------|
F|---4-5----5--4--5----4-5----5-4-5--7-|
C|------------------7------------------|
G|-------------------------------------|
C|-------------------------------------|

Guitar 2 (comes in 3rd time):
d|-----------------------------------------------------|
A|--5*-------------------------------------------------|
F|-----5*----------------------------------------------|
C|-----------------------------------------------------|
G|-----------------------------------------------------|
C|----------7--(16 times)---3--(8 times)--5------------|(8 times)

d|-------------------------------------------------------------------|
A|-------------------------------------------------------------------|
F|-------------------------------------------------------------------|
C|-------------------------------------------------------------------|
G|-------------------------------------------------------------------|
C|-7--7-7-7-(8 times)--10--10-10-10--(4 times)---3--3-3-3------------|(4 times)
       ^triplets             ^ triplets              ^ triplets

           
[Chorus]

Guitar 1
d|-----------------------------------------------|
A|-----------------------------------------------|
F|-----------------------------------------------|
C|------3----------5---------3----------5--7--5--|- figure timing out yourselves
G|------3----------5---------3----------5--7--5--|
C|------3----------5---------3----------5--7--5--|

Guitar 2:
d|--------------------------------------------------------------|
A|--------------------------------------------------------------|
F|-10-10-10-10--9--9--9--9-10-10-10-10--7-7-7-7-5-5-5-5-4-4-4-4-|
C|-10-10-10-10-10-10-10-10-10-10-10-10--------------------------|
G|--------------------------------------------------------------|
C|--------------------------------------------------------------|

d|--------------------------------------------------------------|
A|--------------------------------------------------------------|
F|-10-10-10-10--9--9--9--9-10-10-10-10--7-7-7-7-9-9-9-9-4-4-4-4-|
C|-10-10-10-10-10-10-10-10-10-10-10-10--------------------------|
G|--------------------------------------------------------------|
C|--------------------------------------------------------------|

Little thing between chorus's

Guitar1:
d|------------------|
A|-----8^-----------|
F|-4-5----5-4--5----|
C|---------------7--|
G|------------------|
C|------------------|

Guitar 2:
d|-------------------|
A|-------------------|
F|-7-9--12^-9-7-9-5--|
C|-------------------|
G|-------------------|
C|-------------------|


[Chorus]

Guitar 1
d|-----------------------------------------------|
A|-----------------------------------------------|
F|-----------------------------------------------|
C|------3----------5---------3----------5--7--5--|- figure timing out yourselves
G|------3----------5---------3----------5--7--5--|
C|------3----------5---------3----------5--7--5--|

Guitar 2:
d|--------------------------------------------------------------|
A|--------------------------------------------------------------|
F|-10-10-10-10--9--9--9--9-10-10-10-10--7-7-7-7-5-5-5-5-4-4-4-4-|
C|-10-10-10-10-10-10-10-10-10-10-10-10--------------------------|
G|--------------------------------------------------------------|
C|--------------------------------------------------------------|

d|--------------------------------------------------------------|
A|--------------------------------------------------------------|
F|-10-10-10-10--9--9--9--9-10-10-10-10--7-7-7-7-9-9-9-9-4-4-4-4-|
C|-10-10-10-10-10-10-10-10-10-10-10-10--------------------------|
G|--------------------------------------------------------------|
C|--------------------------------------------------------------|

2nd time guitar 2 does this:
d|---------------------------------|
A|---------------------------------|
F|-7-9--12^-9-7-9-5--4-5-7-5-4-5-7-|
C|---------------------------------|
G|---------------------------------|
C|---------------------------------|


[Outro]

Guitar 1:
d|---------------------------------|
A|-----8^--------------------------|
F|-4-5----5-4--5-------------------|
C|---------------7--5-7-9-7-5-7-9--|
G|---------------------------------|
C|---------------------------------|

Guitar 2:
d|---------------------------------|
A|---------------------------------|
F|-7-9--12^-9-7-9-5--4-5-7-5-4-5-7-|
C|---------------------------------|
G|---------------------------------|
C|---------------------------------|



************************************

| h  Hammer-on
| ^  Bend 

************************************
Suggest correction
comments
print report bad tab
14 comments total. Showing first comments.
0 reply
Triviallica 74 wrote on January 20 2006, 02:58 pm

great tab - only mistake i found was in the bridge. guitar twos riff should be on the c string, not the g (10 9 7 9 9 10 7). im guessing it was just an accident cuz you had the position right. besides that nice job

0 reply
Headless_Duck77 166 wrote on January 20 2006, 03:00 pm

lmao shit yea that was an accident my bad

0 reply
BulletMaximus 1,136 wrote on January 22 2006, 08:38 am

what's the last chord after the intro that uses echo?..coz i cant figure it out

guest
You may want to rate the tab now too:
select rating
Wanna post a correction for this tab? Suggest correction