Oops, an error
Loading. Please wait.

Tears Dont Fall Bass

version 3
version 3
46,602 views 57 this week
8 commentsread comments
1 2 3 4 5
x 20
add to favorites
launch autoscroll
font size
0
reset
guitar tuner
backing track
0:00
0:00
×
Best way to learn
"Tears Dont Fall"
Autoscroll
slow
fast
+/-
esc
set tempo
stop
Author
Difficulty
Tuning
novice
C G C F
[Intro] (No bass)

[Chorus] (x2)
F|---------------------------------|---------------------------------|
C|---------------------------------|---------------------------------|
G|---------------------------------|---------------------------------|
C|-3-3-3-3-3-3-3-3-3-3-3-3-3-3-3-3-|-5-5-5-5-5-5-5-5-5-5-5-5-5-5-5-5-|

F|---------------------------------|---------------------------------|
C|---------------------------------|---------------------------------|
G|---------------------------------|---------------------------------|
C|-3-3-3-3-3-3-3-3-3-3-3-3-3-3-3-3-|-5-5-5-5-5-5-5-5-6-6-6-6-5-5-5-5-|

[Pre-Verse] (No bass)

[Verse]
F|---------------------------------|---------------------------------|
C|---------------------------------|-----------------------------3h5-|
G|---------------------------------|-------------------------3h5-----|
C|-7----77-----7-7-----------------|-3----33-----3-3-----------------|

F|---------------------------------|---------------------------------|
C|---------------------------------|---------------------------------|
G|---------------------------------|---------------------------------|
C|-7----77-----7-7-----------------|-3----33-----3---5---------------|

[Pre-Chorus]
F|---------------------------------|---------------------------------|
C|---------------------------------|---------------------------------|
G|---------------------------------|---------------------------------|
C|-7-7-7-7-7-7-7-7-7-7-7-7-7-7-7-7-|-3-3-3-3-3-3-3-3-5-5-5-5-5-5-5-5-|

F|---------------------------------|---------------------------------|
C|---------------------------------|---------------------------------|
G|---------------------------------|---------------------------------|
C|-7-7-7-7-7-7-7-7-7-7-7-7-7-7-7-7-|-3-3-3-3-3-3-3-3-5~--------------|

F|---------------------------------|---------------------------------|
C|---------------------------------|---------------------------------|
G|---------------------------------|-3-333-333-333-3-----------------|
C|-7-777-777-777-777-777-777-777-7-|-----------------3-333-333-333-3-|

F|---------------------------------|---------------------------------|
C|---------------------------------|---------------------------------|
G|---------------------------------|---------------------------------|
C|-7-777-777-777-777-777-777-777-7-|-3-3-3-3-3-3-3-3-5\--------------|

[Chorus] (x2)
F|---------------------------------|---------------------------------|
C|---------------------------------|---------------------------------|
G|---------------------------------|---------------------------------|
C|-3-3-3-3-3-3-3-3-3-3-3-3-3-3-3-3-|-5-5-5-5-5-5-5-5-5-5-5-5-5-5-5-5-|

F|---------------------------------|---------------------------------|
C|---------------------------------|---------------------------------|
G|---------------------------------|---------------------------------|
C|-3-3-3-3-3-3-3-3-3-3-3-3-3-3-3-3-|-5-5-5-5-5-5-5-5-6-6-6-6-5-5-5-5-|

[Pre-Verse] (No bass)

[Verse]
F|---------------------------------|---------------------------------|
C|---------------------------------|-----------------------------3h5-|
G|---------------------------------|-------------------------3h5-----|
C|-7----77-----7-7-----------------|-3----33-----3-3-----------------|

F|---------------------------------|---------------------------------|
C|---------------------------------|---------------------------------|
G|---------------------------------|---------------------------------|
C|-7----77-----7-7-----------------|-3----33-----3---5---------------|

[Pre-Chorus]
F|---------------------------------|---------------------------------|
C|---------------------------------|---------------------------------|
G|---------------------------------|---------------------------------|
C|-7-7-7-7-7-7-7-7-7-7-7-7-7-7-7-7-|-3-3-3-3-3-3-3-3-5-5-5-5-5-5-5-5-|

F|---------------------------------|---------------------------------|
C|---------------------------------|---------------------------------|
G|---------------------------------|---------------------------------|
C|-7-7-7-7-7-7-7-7-7-7-7-7-7-7-7-7-|-3-3-3-3-3-3-3-3-5~--------------|

F|---------------------------------|---------------------------------|
C|---------------------------------|---------------------------------|
G|---------------------------------|-3-333-333-333-3-----------------|
C|-7-777-777-777-777-777-777-777-7-|-----------------3-333-333-333-3-|

F|---------------------------------|---------------------------------|
C|---------------------------------|---------------------------------|
G|---------------------------------|---------------------------------|
C|-7-777-777-777-777-777-777-777-7-|-3-3-3-3-3-3-3-3-5\--------------|

[Chorus] (x2)
F|---------------------------------|---------------------------------|
C|---------------------------------|---------------------------------|
G|---------------------------------|---------------------------------|
C|-3-3-3-3-3-3-3-3-3-3-3-3-3-3-3-3-|-5-5-5-5-5-5-5-5-5-5-5-5-5-5-5-5-|

F|---------------------------------|---------------------------------|
C|---------------------------------|---------------------------------|
G|---------------------------------|---------------------------------|
C|-3-3-3-3-3-3-3-3-3-3-3-3-3-3-3-3-|-5-5-5-5-5-5-5-5-6-6-6-6-5-5-5-5-|

[Break]
F|---------------------------------|---------------------------------|
C|---------------------------------|---------------------------------|
G|---------------------------------|---------------------------------|
C|-7-------------------------------|---------------------------------|

F|---------------------------------|---------------------------------|
C|---------------------------------|---------------------------------|
G|---------------------------------|---------------------3-0-3-6-5-3-|
C|-7~------------------------------|(7)------------------------------|

[Bridge] (x2)
F|---------------------------------|---------------------------------|
C|---------------------------------|---------------------------------|
G|-0-000-000-000-0-3---3---5---5---|-0-000-000-000-0-----------------|
C|---------------------------------|-----------------3---3---5---5---|

F|---------------------------------|---------------------------------|
C|---------------------------------|---------------------------------|
G|-0-000-000-000-0-3---3---5---5---|-0-000-000-000-000-0-3-0-3-6-5-3-|
C|---------------------------------|---------------------------------|

[Bridge 2]
F|---------------------------------|---------------------------------|
C|---------------------------------|---------------------------------|
G|---------------------------------|---------------------------------|
C|-3---3-3---3-3---7---7-7---7-7---|-0---------------0---------------|

F|---------------------------------|---------------------------------|
C|---------------------------------|---------------------------------|
G|---------------------------------|---------------------------------|
C|-3---3-3---3-3---7---7-7---7-7---|-0---------------0---------------|

F|---------------------------------|---------------------------------|
C|---------------------------------|---------------------------------|
G|---------------------------------|---------------------------------|
C|-3---3-3---3-3---2---2-2---2-2---|-3---3-3---3-3---5---5-5---5-5---|

F|---------------------------------|---------------------------------|
C|---------------------------------|---------------------------------|
G|---------------------------------|---------------------------------|
C|-3---3-3---3-3---6---6-6---6-6---|-7-------------------------------|

[Pre-Solo]
F|---------------------------------|
C|---------------------------------|
G|---------------------------------|
C|-----------------7---7---7-------|

[Solo] (x2)
F|---------------------------------|---------------------------------|
C|---------------------------------|---------------------------------|
G|-0-000-000-000-0-3---3---5---5---|-0-000-000-000-0-----------------|
C|---------------------------------|-----------------3---3---5---5---|

F|---------------------------------|---------------------------------|
C|---------------------------------|---------------------------------|
G|-0-000-000-000-0-3---3---5---5---|-0-000-000-000-000-0-3-0-3-6-5-3-|
C|---------------------------------|---------------------------------|

[Transition] (play right after solo plays twice)
F|---------------------------------|
C|---------------------------------|
G|-3-0-3-6-5-3-0~------------------|
C|---------------------------------|

[Pre-Chorus]
F|---------------------------------|---------------------------------|
C|---------------------------------|---------------------------------|
G|---------------------------------|---------------------------------|
C|-7-7-7-7-7-7-7-7-7-7-7-7-7-7-7-7-|-3-3-3-3-3-3-3-3-5-5-5-5-5-5-5-5-|

F|---------------------------------|---------------------------------|
C|---------------------------------|---------------------------------|
G|---------------------------------|---------------------------------|
C|-7-7-7-7-7-7-7-7-7-7-7-7-7-7-7-7-|-3-3-3-3-3-3-3-3-5~--------------|

F|---------------------------------|---------------------------------|
C|---------------------------------|---------------------------------|
G|---------------------------------|-3-333-333-333-3-----------------|
C|-7-777-777-777-777-777-777-777-7-|-----------------3-333-333-333-3-|

F|---------------------------------|---------------------------------|
C|---------------------------------|---------------------------------|
G|---------------------------------|---------------------------------|
C|-7-777-777-777-777-777-777-777-7-|-3-3-3-3-3-3-3-3-5\--------------|

[Chorus] (x2)
F|---------------------------------|---------------------------------|
C|---------------------------------|---------------------------------|
G|---------------------------------|---------------------------------|
C|-3-3-3-3-3-3-3-3-3-3-3-3-3-3-3-3-|-5-5-5-5-5-5-5-5-5-5-5-5-5-5-5-5-|

F|---------------------------------|---------------------------------|
C|---------------------------------|---------------------------------|
G|---------------------------------|---------------------------------|
C|-3-3-3-3-3-3-3-3-3-3-3-3-3-3-3-3-|-5-5-5-5-5-5-5-5-6-6-6-6-5-5-5-5-|

[Chorus] (x2)
F|---------------------------------|---------------------------------|
C|---------------------------------|---------------------------------|
G|---------------------------------|---------------------------------|
C|-3-3-3-3-3-3-3-3-3-3-3-3-3-3-3-3-|-5-5-5-5-5-5-5-5-5-5-5-5-5-5-5-5-|

F|---------------------------------|---------------------------------|
C|---------------------------------|---------------------------------|
G|---------------------------------|---------------------------------|
C|-3-3-3-3-3-3-3-3-3-3-3-3-3-3-3-3-|-5-5-5-5-5-5-5-5-6-6-6-6-5-5-5-5-|

[Outro]
F|---------------------------------|---------------------------------|
C|---------------------------------|---------------------------------|
G|---------------------------------|---------------------------------|
C|-3~------------------------------|-5~------------------------------|

F|---------------------------------|---------------------------------|
C|---------------------------------|---------------------------------|
G|---------------------------------|---------------------------------|
C|-3~------------------------------|-5~------7~------6~--------------|

F|---------------------------------|---------------------------------|
C|---------------------------------|---------------------------------|
G|-0-000-000-000-0-3---3---5---5---|-0-000-000-000-000-0-3-0-3-6-5-3-|
C|---------------------------------|---------------------------------|


************************************

| h    Hammer-on
| ~    Vibrato
| \    Slide down
| (n)  Ghost note

************************************
Suggest correction
comments
print report bad tab
8 comments total. Showing first comments.
0 reply
Bass Shredder27 73 Oct 10, 2009 07:02 AM

Amazing tab dude, it was perfect thanks!

-1 reply
BassFreak102 510 Oct 11, 2009 03:53 PM

no problem man rock on

0 reply
hightide69 10 Jan 18, 2010 01:05 PM

excellent man i love this song. you did a great job tabbing this!

guest
You may want to rate the tab now too:
select rating
Wanna post a correction for this tab? Suggest correction