Oops, an error
Loading. Please wait.

Tears Dont Fall Bass Tab

version 4
version 4
2,881 views 6 this week
no commentswrite comment
1 2 3 4 5
poor
x 1
add to favorites
launch autoscroll
font size
0
reset
guitar tuner
Tab Pro tools
  • play this tab
  • loop segment
  • change instrument
  • show fretboard
  • metronome
×
Best way to learn
"Tears Dont Fall"
Autoscroll
slow
fast
+/-
esc
set tempo
stop
Contributor
Difficulty
Tuning
novice
C G C F A D
      Transcribed this tab My self. enjoy :D   Tabbed by: Erik Wymer

/=slide
h=hammeron
p=pull off
w=Whole note
   

F|--------------------------------------------------------|
C|------3-2-3--------------------3-2-3--------------------|
G|-----------------5-3-2----------------------77777-22-33-|
C|-3333-------5555----------3333--------5555--------------|  x2    Intro




F|-------------------------10h12-|
C|---77---77---------10/12-------|
G|------------88-88--------------|
C|-------------------------------|  x4


       
F|-------------------------|
C|---------------------3h5-|
G|------------------3h5----|
C|-777-7----333-3-55-------| x2




F|------------------------------------------------------------|
C|------------------------------------------------------------|
G|------------------------------------------------------------|
C|-77777777777-33333333-5555555-77777777777--33333333-5555555-|



F|------------------------------------------------|
C|------------------------------------------------|
G|-0-000-000-000-000-333-333-333-333--------------|
C|-----------------------------------333-333-333--| x2




F|--------------------------------------------------------|
C|------3-2-3--------------------3-2-3--------------------|
G|-----------------5-3-2----------------------77777-22-33-|
C|-3333-------5555----------3333--------5555--------------|  x2





F|-------------------------|
C|---------------------3h5-|
G|------------------3h5----|
C|-777-7----333-3-55-------| x2



F|------------------------------------------------------------|
C|------------------------------------------------------------|
G|------------------------------------------------------------|
C|-77777777777-33333333-5555555-77777777777--33333333-5555555-|



F|------------------------------------------------|
C|------------------------------------------------|
G|-0-000-000-000-000-333-333-333-333--------------|
C|-----------------------------------333-333-333--| x2



F|--------------------------------------------------------|
C|------3-2-3--------------------3-2-3--------------------|
G|-----------------5-3-2----------------------77777-22-33-|
C|-3333-------5555----------3333--------5555--------------|  x2


F|-----------------------|
C|-----------------------|
G|-0----0-000-000-3---5-|
C|------------------------| um yeah Im out of time!
comments
We did not receive enough feedback on this tab! Please rate:
print report bad tab
1 2 3 4 5
I want to post or [tab]
guest
You may want to rate the tab now too:
select rating
Please do not post tabs as comments. Select "correction" instead!