Oops, an error
Loading. Please wait.
87,863 views 399 this week
43 commentsread comments
1 2 3 4 5
x 39
add to favorites
×
Save as Personal and add changes to this tab that will be seen only by you. Learn more ›
×
You can save this tab as Personal to edit and correct it or add notes. All changes will be seen only by you. Learn more »
launch autoscroll
font size
0
reset
how to read this tab
guitar tuner
backing track
0:00
0:00
edit
Autoscroll
slow
fast
+/-
esc
set tempo
stop
Author
Tabbers playing skills
intermediate +
Tuning: Drop C (C,G,C,F,A,D)

[Intro] 
(Guitar 1)
D|---------------------------------------------------------------|
A|---------------------------------------------------------------|
F|---------------------------------------------------------------|
C|--------14----14-14----14----14-14----15----14------10--10-10--|
G|--12-12----12-------12----12-------12----12-----8-8---8--------|
C|---------------------------------------------------------------|

D|-----------------------------------|
A|-----------------------------------|
F|---------------------10h12---------|
C|------12--------10h12--------------|
G|-10-10---10------------------------|
C|-----------------------------------|

(Guitar 2)
D|-----------------------------------------------------|
A|-----------------------------------------------------|
F|---9--9--9--9--9--9--9--9--9--9--9--9--9--9--9--9----|
C|--10-10-10-10-10-10-10-10-10-10-10-10-10-10-10-10----|
G|-----------------------------------------------------|
C|-----------------------------------------------------|
PM-----------------------------------------------------|

D|-------------------------|----------------------------|
A|-------------------------|----------------------------|
F|-10-10-10-10-10-10-10-10-|--9--9--9--9----------------|
C|-12-12-12-12-12-12-12-12-|-10-10-10-10--9--9--9--9-|1-|
G|-------------------------|-------------10-10-10-10----|
C|-------------------------|----------------------------|
PM-------------------------|----------------------------|

D|----------------------------------|
A|----------------------------------|
F|-10-10-10-10-10-10-10-10----------|
C|-12-12-12-12-12-12-12-12--9-----2-|
G|-------------------------10-------|
C|----------------------------------|
PM----------------------------------|

[Chorus]
D|----------------------------------------|
A|-----------6-6-6-6--5-5-5-5--6-6-6-6----|
F|-----------5-5-5-5--5-5-5-5--5-5-5-5----|
C|--3-3-3-3--3-3-3-3--3-3-3-3--3-3-3-3----|
G|--3-3-3-3--3-3-3-3--3-3-3-3--3-3-3-3----|
C|--3-3-3-3--3-3-3-3--3-3-3-3--3-3-3-3----|

D|-------------------------------------------------|
A|----------15-15-15-15-13-13-13-13-12-12-12-12----|
F|-7-7-7-7-----------------------------------------|
C|-5-5-5-5--12-12-12-12-10-10-10-10--9--9--9--9----|
G|-5-5-5-5-----------------------------------------|
C|-5-5-5-5-----------------------------------------|

(With Delay - Distortion off)
D|--------------------------------------------------------------------|
A|--------------------------------------------------------------------|
F|--------------------------------------------------------------------|
C|--------------------------------------------------------------------|
G|------12-12-12-12-12-12-12-12-12b-12b-12b-12b-(13)-(13)-(13)-(13)---|
C|--------------------------------------------------------------------|
     PM---------------------------------------------------------------|

D|---------------------------------------------------------------|
A|---------------------------------------------------------------|
F|---------------------------------------------------------------|
C|--------14----14-14----14----14-14----15----14------10--10-10--|
G|--12-12----12-------12----12-------12----12-----8-8---8--------|
C|---------------------------------------------------------------|

D|------------------------------------|
A|------------------------------------|
F|----------------------10h12---------|
C|-------12-----10h12-----------------|
G|-10-10----10------------------------|
C|------------------------------------|

D|-----------------------------------------------------------------|
A|-----------------------------------------------------------------|
F|-----------------------------------------------------------------|
C|--------14----14-14----14----14-14----15----14-------------------|
G|--12-12----12-------12----12-------12----12----------------------|
C|-----------------------------------------------------------------|

D|----------------------------------------------------------|
A|---------------------------+5+----------------------------|
F|--------------------------------+5+-----------------------|
C|-----10--10-10----10/12-----------------------------------|
G|-8-8---8-------8------------------------------------------|
C|----------------------------------------------------------|
PM----------------------------------------------------------|

D|----------------------------------------------------------|
A|----------------------------------------------------------|
F|---------9------9--9------9 --------7---------7-----7-----|
C|-----10-----10--------10---------9---------9-----9--------|
G|--8--------------------------10--------10-----------------|
C|----------------------------------------------------------|
PM----------------------------------------------------------|

[Pre-Chorus]
D|-----------------------------------------------------------------------|
A|--------8-------------------------8--------------------8---------------|
F|-----------------------------------------------------------------------|
C|-/9--10----10--9---10--7---/9--10---10--9--10--12—/9-10---10-9-10/12---|
G|-----------------------------------------------------------------------|
C|-----------------------------------------------------------------------|

D|--------------------------------|
A|--------------------------------|
F|------5-----4-4----4-----5\-----|
C|--7-7---5-5-----5---------------|
G|--------------------------------|
C|--------------------------------|
PM--------------------------------|

[Interlude]
D|-------------------------------------------------|-------------------------|
A|-------------------------------------------------|-------------------------|
F|-------------------------------------------------|-------------------------|
C|-------------------------------------------------|-5-------5---8---7---3---|
G|--0---0--0--0--0--0--0--0----0--0--0--0--0--0-X7-|-3---0---3---6---5---5---|
C|-------------------------------------------------|-------------------------|
PM---------------------------------------------------------------------------|

D|-----------------------------------------------------------------|
A|-----------------------------------------------------------------|
F|------------------------------------/-9---7----5----7-----7------|
C|------------------------------------/10---9----7----9-----9------|
G|-0---0--0--0----0--0--0----0--0--0----------0----------0---------|
C|-----------------------------------------------------------------|
PM-----------------------------------------------------------------|

D|---------------------------------------------------------------|
A|---------------------------------------------------------------|
F|---9--5~~------------------------------------------------------|
C|--10--7~~------------------------------------------------------|
G|-----------0---0--0--0--/10----8-----7----8--------7-----------|
C|----------------------------------0-----------0---10-----------|
PM                                  -           -|

D|-----------------------------------------------------------------|
A|-----------------------------------------------------------------|
F|---------------------------/-9-----------------------------------|
C|---------------------------/10-----------------------------------|
G|---8----7----0----0--0--0----------------------------------------|
C|--12---10--------------------------------------------------------|
PM             ----------------------------------------------------|

[Bridge]
D|---------------------------------------------------------------------|
A|---------------------------------------------------------------------|
F|---------------------------------------------------2--2--0-----------|
C|-3----3----3--3--3--7----7--7--7--7--7--7--0----0--3--3--2--2--------|
G|-3----3----3--3--3--7----7--7--7--7--7--7--0----0-----------3-0--0---|
C|-3----3----3--3--3--7----7--7--7--7--7--7--0----0-------------0--0---|
PM                                                              -

D|----------------------------|
A|----------------------------|
F|------2--2--0---------------|
C|------3--3--2--2-----3------|
G|--0------------3--0--3------|
C|--0---------------0--3------|
PM                  -

D|------------------------------------------------------------------|
A|------------------------------------------------------------------|
F|------------------------------------------------------------------|
C|--3--3--3--3--3--3--2--2--2--2--2--2--2--3--3--3--3--3--3--3------|
G|--3--3--3--3--3--3--2--2--2--2--2--2--2--3--3--3--3--3--3--3------|
C|--3--3--3--3--3--3--2--2--2--2--2--2--2--3--3--3--3--3--3--3------|

D|----------------------------------------------------------------------|
A|----------------------------------------------------------------------|
F|----------------------------------------------------------------------|
C|--5--5--5--5--5--5--5--3--3--3--3--3--3--3--6--6--6--6--6--6--6--6--6-|
G|--5--5--5--5--5--5--5--3--3--3--3--3--3--3--6--6--6--6--6--6--6--6--6-|
C|--5--5--5--5--5--5--5--3--3--3--3--3--3--3--6--6--6--6--6--6--6--6--6-|

D|--------------------------------------------------------------------|
A|--------------------------------------------------------------------|
F|--------------------------------------------------------------------|
C|---------------------------------------7----7----7------------------|
G|---------------------------------------7----7----7------------------|
C|---0--0-0-0-0-0-0-0--0-0-0-0-0-0--X3---7----7----7------------------|
PM--------------------------------------------------------------------|

[Solo]
D|--20p17------17-------20p17----17-------20p17----17-------20p17----------|
A|---------20-----20p17-------20----20p17-------20----20p17-------20BU(22)-|
F|-------------------------------------------------------------------------|
C|-------------------------------------------------------------------------|
G|-------------------------------------------------------------------------|
C|-------------------------------------------------------------------------|

D|-20p17----17-------20p17----17-------20p17-----17------------------------|
A|-------20----20p17-------20----20p17--------20----20p17-20p17------------|
F|---------------------------------------------------------------19BU(21)--|
C|-------------------------------------------------------------------------|
G|-------------------------------------------------------------------------|
C|-------------------------------------------------------------------------|

D|--20p17----17------------------------------------------------------------|
A|--------20----20p17--20p17----17-----------------------------------------|
F|---------------------------19----19p17--19p17----17------------------17--|
C|----------------------------------------------19----19p17--19~~~-19------|
G|-------------------------------------------------------------------------|
C|-------------------------------------------------------------------------|

D|---------------------------------------0--3~~~---------------------------|
A|------------------17--20p17---------------4-----------------BU-----------|
F|--21p17--------17------------17--22p17---------7--7--7¼--7¼----8--8¼--9--|
C|--------19--1i-----------------------------------------------------------|
G|-------------------------------------------------------------------------|
C|-------------------------------------------------------------------------|

D|--------------------------------------------------------------------|
A|--------------------------------------------------BU--BD------------|
F|--(9)--7p5----5~~-----5---7BU-(9)-BD-(7)p5-----5-7*-(9)-(7)p5---5---|
C|-----------7-------7------------------------7-----------------7-----|
G|--------------------------------------------------------------------|
C|--------------------------------------------------------------------|

D|--------------------------------------------------------|
A|---BU--BD-----------------------------------------------|
F|--7*-(9)-(7)p5----5------9p10p9--7p9p7--5p7p5-----------|
C|---------------7----5\-------------------------7~~~~----|
G|--------------------------------------------------------|
C|--------------------------------------------------------|

D|-------------------------------------------------------------------------|
A|-------------------------------------------------------------------------|
F|-------------------------------------------------------------------------|
C|----------------------------------------------------------------------8--|
G|--x--~~~~~~~~~~~~~~~~~~~~~~~~~~~~~~~~~~~~~~~--------------------------8--|
C|--x--~~~~~~~~~~~~~~~~~~~~~~~~~~~~~~~~~~~~~~~----24--------------------8--|

(Bridge Outro Chorus twin solo)
D|------------------------------------------------------------------|
A|-----------------8-BU--(10)-BD--(8)-------------------------------|
F|---7--------9----9-----(10)-----(9)-----9-----7----9-----5--------|
C|---9-------10--------------------------10-----9---10-----7--------|
G|------------------------------------------------------------------|
C|------------------------------------------------------------------|

(Outro Chrous Melody)
D|-------------------------------------------------------------------------|
A|----------------BU----BD-------------------------------------------------|
F|--------------12--(14)--(12)---------------------------------------------|
C|--12--12--14-----------------14--12--14--10-----10--10--9---10/12---10---|
G|-------------------------------------------------------------------------|
C|-------------------------------------------------------------------------|

D|--------------|------------BU---BD---------------------------------------|
A|--------------|-----------8-(10)-(8)-------------------------------------|
F|--------------|-7---9-----9-(10)-(8)--9---7---9---5----4---5/7--5--4--5/7|
C|--9--10--/12--|-9--10----------------10---9--10---7----5---7/9--7--5--7/9|
G|--------------|----------------------------------------------------------|
C|--------------|----------------------------------------------------------|

(Second time)
D|-----------------------------------------------|
A|-----------------------------------------------|
F|--4----5---5/7---------------------------------|
C|--5----7---7/9---------------------------------|
G|-----------------------------------------------|
C|-----------------------------------------------|

D|---------------------------------------------------------------------------|
A|---------------------------------------------------------------------------|
F|-------------------------------------/-9---7-----5-----7-----7----9--5~----|
C|-------------------------------------/10---9-----7-----9-----9---10--7~----|
G|--0---0--0--0---0--0--0---0--0--0-------------0-----------0----------------|
C|---------------------------------------------------------------------------|
PM----------------------------------            -           -----------------|

(Closing Riff)
D|------------------------------------------------------------|
A|------------------------------------------------------------|
F|------------------------------------------------------------|
C|---------------------------5-------5--8--7--3--------7------|
G|--0--0--0--0--0--0--0--0---3---0---3--6--5--5--------7------|
C|-----------------------------------------------------7------|
Pm------------------------------------------------------------|


************************************

| h    Hammer-on
| (n)  Ghost note
| b    Bend
| /    Slide up
| \    Slide down
| ~    Vibrato
| PM   Palm mute
| p    Pull-off
| *    Natural harmonic
| x    Dead note 

************************************

            
            
Suggest correction
Creating personal tab
Creating personal tab
You can edit any tab online and save it as your Personal.

You can edit, replace or remove any tab part or add personal notes – all changes will be seen only by you.

Personal tabs can be accessed anytime from any device, even offline.
Learn more »
comments
print report bad tab
43 comments total. Showing first comments.
+2 reply
Ghost:o 118 Mar 10, 2007 12:34 PM

Not if you want to play it like Bullet.

+2 reply
badhabit000 30 Mar 13, 2007 08:31 PM

they hella dont play it like this watch there live yahoo video

+3 reply
Ghost:o 118 Mar 20, 2007 02:55 PM

Geez i get this tab from somewhere professional, That's 100% accurate and played by bullet.. Seeing as they also interview them so there gonna check it over, and you all complain It's correct maybe you just can't play it, Come back when you can play songs to there fullest extent, not the ones that take the easy way out.

guest
You may want to rate the tab now too:
select rating
Wanna post a correction for this tab? Suggest correction