Oops, an error
Loading. Please wait.

Tears Dont Fall Tab

version 7
9,635 views 1 this week
1 commentread comment
1 2 3 4 5
please rate
add to favorites
launch autoscroll
font size
0
reset
how to read this tab
guitar tuner
Tab Pro tools
  • play this tab
  • loop segment
  • change instrument
  • show fretboard
  • metronome
×
Best way to learn
"Tears Dont Fall"
Autoscroll
slow
fast
+/-
esc
set tempo
stop
Contributor
Tears Don't Fall - Bullet For My Valentine

Tabbed By Kevhah
Tunning: Drop C
Difficulty: Medium

Symbols:

* Natural Harmonic
> Pinch Harmonic
/ Slide to
7b8 Bending
. Palm Muting
5h7 Hammer On
4p0 Pull Off
~ Let Ring

 Tunning:
|-D-| 1 String
|-A-| 2 String
|-F-| 3 String
|-C-| 4 String
|-G-| 5 String
|-C-| 6 String


Intro: (Both Guitars W/Distorition)

Guitar 1 (and Verse)

D|---------------------------------|--------------------|--------------------|
A|---------------------------------|--------------------|-------------6h8----|
F|------9-----9---9-----9---10-10--|-------5-----5---5--|------7--5h7--------|
C|--7-7---7-7---7---7-7---7--------|---3-3---3-3---3----|--5-5---------------| x4
G|---------------------------------|--------------------|--------------------|
C|---------------------------------|--------------------|--------------------|
    . .   . .   .   . .   .            . .   . .   .       . . 

Guitar 2, Enters during the 2nd Row.

D|---------------------------------|--------------------|--------------------|
A|---------------------------------|--------------------|--------------------|
F|---------------------------------|--------------------|--------------------|
C|-7-7-7-7-7-7-7-7-7-7-7-7-7-7-7-7-|--3-3-3-3-3-3-3-3-3-|--5-5-5-5-5-5-5-5-5-| x2
G|---------------------------------|--------------------|--------------------|
C|---------------------------------|--------------------|--------------------|
   . . . . . . . . . . . . . . . .    . . . . . . . . .    . . . . . . . . . 

Chorus Riff (Tears dont Fall they Crash Arround me...)

Guitar 1

D|----------------------------------------|----------------------------------|
A|----------------------------------------|----------------------------------|
F|-----------10-10-10-10-9-9-9-9-10-10-10-|----------7-7-7-7-5-5-5-5-4-4-4p0-|
C|--3--3-3--------------------------------|--5--5-5--------------------------| (1)
G|--3--3-3--------------------------------|--5--5-5--------------------------|
C|--3--3-3--------------------------------|--5--5-5--------------------------|
                                                                                  
D|----------------------------------------|----------------------------------|
A|----------------------------------------|----------------------------------|
F|-----------10-10-10-10-9-9-9-9-10-10-10-|----------7-7-7-7-9-9-9-9-4-4-4p0-|
C|--3--3-3--------------------------------|--5--5-5--------------------------| (2)
G|--3--3-3--------------------------------|--5--5-5--------------------------|
C|--3--3-3--------------------------------|--5--5-5--------------------------|

So, the order is: 1,2,1,2 (Really Easy!)


Guitar 2

D|----------------------------------------|----------------------------------|
A|----------------------------------------|----------------------------------|
F|----------------------------------------|----------------------------------|
C|--3--3-3-3-3-3-3-3-3--33333333----------|--5-5-5-5-5-5-5-5-5--55555555-----| x4
G|--3--3-3-3-3-3-3-3-3--33333333----------|--5-5-5-5-5-5-5-5-5--55555555-----|
C|--3--3-3-3-3-3-3-3-3--33333333----------|--5-5-5-5-5-5-5-5-5--55555555-----|


Mini Interlude:

Guitar 1 or 2

D|--------------------(Bend Slowly, like in the song)------|
A|--------------------(and Hold the bending!!!)------------|
F|---------------------------------------------------------|
C|--7-7-7-7-7-7-7-7-7b8-8-8-8-8-8-8-8----------------------| 
G|---------------------~~~~~~~~~~~~~~----------------------|
C|---------------------------------------------------------|
    . . . . . . . . . . . . . . . . . 


Then The Intro again... (Guitar 2 Stays the Same)
In This riff we have a little variation, the 2nd time it is played
youplay this:


Guitar 1 
                                                (Remember *= Natural Harmonic)
D|---------------------------------|--------------------|--------------------|
A|---------------------------------|--------------------|--------------------|
F|------9-----9---9-----9---10-10--|-------5-----5---5--|------9*-5*---------|
C|--7-7---7-7---7---7-7---7--------|---3-3---3-3---3----|--5-5---------------| 
G|---------------------------------|--------------------|--------------------|
C|---------------------------------|--------------------|--------------------|
    . .   . .   .   . .   .            . .   . .   .       . . 


Pre-Chorus:

Guitar 1 (Melody)
 
D|----------------------|----------------------|---------------------| 
A|----------------------|----------------------|---------------------| 
F|-------12-------------|-------12-------------|------12-------------| 
C|--9-10----10-9-10-----|--9-10----10-9-10-12--|-9-10----10-9-10-----| 
G|------------------12--|----------------------|-----------------12--| 
C|----------------------|----------------------|---------------------| 

D|----------------------| 
A|----------------------| 
F|----------------------| 
C|-5-5-5-5-7-7-7-7-9/5--| 
G|----------------------| 
C|----------------------| 

Guitar 2: (Rythm)

D|-----------------------------|------------------------------|
A|-----------------------------|------------------------------|
F|-----------------------------|------------------------------|
C|-7-777-777-777-777-77777777--|--3-333-333-333-333-33333333--| 
G|-7-777-777-777-777-77777777--|--3-333-333-333-333-33333333--|
C|-7-777-777-777-777-77777777--|--3-333-333-333-333-33333333--|
   . ... ... ... ... ........     . ... ... ... ... ........

D|-----------------------------|------------------------------|
A|-----------------------------|------------------------------|
F|-----------------------------|------------------------------|
C|-7-777-777-777-777-77777777--|--5-5-5-5-7-7-7-7-9/5---------| 
G|-7-777-777-777-777-77777777--|--5-5-5-5-7-7-7-7-9/5---------|
C|-7-777-777-777-777-77777777--|--5-5-5-5-7-7-7-7-9/5---------|
   . ... ... ... ... ........     . . . . . . . . 

Rythm Change (1st Part):

Guitar 1 and 2

D|-------------|            |----------------------|
A|-------------|            |----------------------|
F|-------------|            |----------------------|
C|--7-777777---|x 14 then   |--10-7-10-13-12-10-7--|
G|--7-777777---|            |--10-7-10-13-12-10-7--|
C|--7-777777---|            |--10-7-10-13-12-10-7--|

(2nd Part, this is played by Guitar 2 during the Solo)

D|------------------------------------------------------------------------|
A|------------------------------------------------------------------------|
F|------------------------------------------------------------------------|
C|-7-77-77-77--9/10-9-7-9-9/10-7--7-777-----------------------------------| 
G|-7-77-77-77---------------------7-777--8/10-8-7-8-----------------------|
C|-7-77-77-77---------------------7-777-------------10-12-10--------------|
   . .. .. ..                     . ...
                                                                             X 2
D|------------------------------------------------------------------------|
A|------------------------------------------------------------------------|
F|------------------------------------------------------------------------|
C|-7-77-77-77--9/10-9-7-9-9/10-7--7-777--10-7-10-13-12-10-7---------------| 
G|-7-77-77-77---------------------7-777--10-7-10-13-12-10-7---------------|
C|-7-77-77-77---------------------7-777--10-7-10-13-12-10-7---------------|
   . .. .. ..                     . ...


Pre-Solo:

Guitar 1 and 2

D|--------------------------------------------|
A|--------------------------------------------|
F|--------------------------------------------|
C|--3~~-7~~-0-0-10-10-9-10-0-0-10-10-9--------| X 2
G|--3~~-7~~-0-0------------0-0---------10-----|
C|--3~~-7~~-0-0------------0-0----------------|


D|------------------------------------------------------------------------|
A|------------------------------------------------------------------------|
F|------------------------------------------------------------------------|
C|--3~~2~~3~~5~~3~~6~~-7-777777-777777-777777--7-7-7----(Let's Go!)-------| 
G|--3~~2~~3~~5~~3~~6~~-7-777777-777777-777777--7-7-7----------------------|
C|--3~~2~~3~~5~~3~~6~~-7-777777-777777-777777--7-7-7----------------------|
                       . ...... ...... ...... 

Solo

Guitar 2 keeps playing the 2nd part of the Rythm Change during the Guitar 1 Solo.
This Solo is played With WahWah.

Guitar 1 (Part 1)

D|--20-17----17--------|--20-17----17--------|-20-17----17-------|--20-17------------|
A|--------20----20-17--|--------20----20-17--|-------20----20-17-|--------20-20b22---|
F|---------------------|---------------------|-------------------|-------------------|
C|---------------------|---------------------|-------------------|-------------------| 
G|---------------------|---------------------|-------------------|-------------------|
C|---------------------|---------------------|-------------------|-------------------|

D|--20-17----17--------|--20-17----17--------|-20-17----17-------|--20-17----17----------------|
A|--------20----20-17--|--------20----20-17--|-------20----20-17-|--------20----20-17----------|
F|---------------------|---------------------|-------------------|-------------------19-19b20--|
C|---------------------|---------------------|-------------------|-----------------------------| 
G|---------------------|---------------------|-------------------|-----------------------------|
C|---------------------|---------------------|-------------------|-----------------------------|

D|--20-17-----------------------------------------------------------------------------17--|
A|--------20-17-20----17--------------------------------------------------------17-19-----|
F|-----------------19----19-17-19-17----17-----------------17h19p17----------19-----------|
C|-----------------------------------19----19-17-19--17-19----------19-17-19--------------| 
G|----------------------------------------------------------------------------------------|
C|----------------------------------------------------------------------------------------|

(2nd Part)

Use Tembrolo Picking 

D|------------------------------------------------------------------------|
A|------------------------------------------------------------------------|
F|------------------------------------------------------------------------|
C|--121212121212121211212121212121212-12b14-7-10--------------------------| 
G|------------------------------------------------------------------------|
C|------------------------------------------------------------------------|
                                      >P.H.

D|------------------------------------------------------------------------|
A|------------------------------------------------------------------------|
F|--9b11p7---9b11p7---9b11p7---9b11p7---15-13-12-13-12----12--------------|
C|---------9--------9--------9-------------------------15----15-12-13-----| 
G|------------------------------------------------------------------------|
C|------------------------------------------------------------------------|


D|--------------------------------------------|
A|--------------------------------------------|
F|--------------------------------------------|
C|--10-7-10-13-12-10-7--10-7-10-13-12-10-12~~~|
G|--10-7-10-13-12-10-7--10-7-10-13-12-10-12~~~|
C|--10-7-10-13-12-10-7--10-7-10-13-12-10-12~~~|


Then: Intro + Melody

  
(Outro)
Both Guitars do their job...

D|----------------------------------------|----------------------------------|
A|----------------------------------------|----------------------------------|
F|-----------10-10-10-10-9-9-9-9-10-10-10-|----------7-7-7-7-5-5-5-5-4-4-4p0-|
C|--3--3-3--------------------------------|--5--5-5--------------------------| 
G|--3--3-3--------------------------------|--5--5-5--------------------------|
C|--3--3-3--------------------------------|--5--5-5--------------------------|
                                                                               X2   
D|----------------------------------------|----------------------------------|
A|----------------------------------------|----------------------------------|
F|-----------10-10-10-10-9-9-9-9-10-10-10-|----------7-7-7-7-9-9-9-9-4-4-4p0-|
C|--3--3-3--------------------------------|--5--5-5--------------------------| 
G|--3--3-3--------------------------------|--5--5-5--------------------------|
C|--3--3-3--------------------------------|--5--5-5--------------------------|

D|----------------------|
A|----------------------| 
F|-------12-------------| 
C|--9-10----10-9-10-----| 
G|------------------12--| 
C|----------------------| 

D|----------------------------------------|----------------------------------|
A|----------------------------------------|----------------------------------|
F|-----------10-10-10-10-9-9-9-9-10-10-10-|----------7-7-7-7-5-5-5-5-4-4-4p0-|
C|--3--3-3--------------------------------|--5--5-5--------------------------| 
G|--3--3-3--------------------------------|--5--5-5--------------------------|
C|--3--3-3--------------------------------|--5--5-5--------------------------|
                                                                                  
D|----------------------------------------|----------------------------------|
A|----------------------------------------|----------------------------------|
F|-----------10-10-10-10-9-9-9-9-10-10-10-|----------7-7-7-7-9-9-9-9-4-4-4p0-|
C|--3--3-3--------------------------------|--5--5-5--------------------------| 
G|--3--3-3--------------------------------|--5--5-5--------------------------|
C|--3--3-3--------------------------------|--5--5-5--------------------------|

D|----------------------|----------------------|---------------------|----------------------| 
A|----------------------|----------------------|---------------------|----------------------| 
F|-------12-------------|-------12-------------|------12-------------|-------12-------------|
C|--9-10----10-9-10-----|--9-10----10-9-10-12--|-9-10----10-9-10-----|--9-10----10-9-10-----| 
G|------------------12--|----------------------|-----------------12--|------------------12--| 
C|----------------------|----------------------|---------------------|----------------------|

D|----------------------|----------------------|---------------------|---------------------|  
A|----------------------|----------------------|---------------------|---------------------|  
F|-------12-------------|-------12-------------|------12-------------|---------------------|  
C|--9-10----10-9-10-----|--9-10----10-9-10-12--|-9-10----10-9-10-----|--5~~~~~/7~~~~~~/9~~-|  
G|------------------12--|----------------------|-----------------12--|---------------------|  
C|----------------------|----------------------|---------------------|---------------------|  

Ending

D|-------------------------------------------------------------------|
A|-------------------------------------------------------------------|
F|-------------------------------------------------------------------|
C|-7-77-77-77--9/10-9-7-9-9/10-7----10-7-10-13-12-10-7---------------| 
G|-7-77-77-77-----------------------10-7-10-13-12-10-7---------------|
C|-7-77-77-77-----------------------10-7-10-13-12-10-7---------------|
   . .. .. ..          

Order of the parts:

--Intro--
--Chorus--
--Mini Interlude--
--Intro (variation)--
--Pre-Chorus--
--Chorus--
--Mini Interlude--
--Intro (variation)--
--Pre-Chorus--
--Chorus--
--Rythm Change--
--Pre-Solo--
--Solo--
--Intro--
--Pre-Chorus--
--Chorus--
--Outro--
--Ending--

-----------------------------------

Any Doubts or Comments email me: kevhah92@hotmail.com
comments
We did not receive enough feedback on this tab! Please rate:
print report bad tab
1 2 3 4 5
1 comment total.
0 reply
acesarcm wrote on December 16 2008, 12:36 am

yeah! el kevhah

I want to post or [tab]
guest
You may want to rate the tab now too:
select rating
Please do not post tabs as comments. Select "correction" instead!