Oops, an error
Loading. Please wait.

Temper Temper tab

version 2
version 2

Whole song

Interactive

16,870 views 3 this week
5 commentsread comments
1 2 3 4 5
x 20
add to favorites
×
Save as Personal and add changes to this tab that will be seen only by you. Learn more ›
×
You can save this tab as Personal to edit and correct it or add notes. All changes will be seen only by you. Learn more »
launch autoscroll
font size
0
reset
how to read this tab
guitar tuner
edit
Autoscroll
slow
fast
+/-
esc
set tempo
stop
----------------------------------------------------------------------------
                   Bullet for my Valentine - Temper Temper
----------------------------------------------------------------------------

Tabbed: Metalrock4ever

Tuning: CGCFAD

Intro/riff:
D|-------------------------------------------|
A|-----------------33-44---------------------|
F|-----222-----222-----------222-------------|
C|-000-----333-----------000-----333-2222-33-|  x2
G|-------------------------------------------|
C|-------------------------------------------|

D|----------------------------------------------|
A|-----------------33-44------------------------|
F|-----222-----222-----------222-------------2/-|
C|-000-----333-----------000-----333-2222-33----|  
G|----------------------------------------------|
C|----------------------------------------------|

Rhythm Guitar:
(Play after riff is played twice. I don't know whether he actually plays
the extra notes on the F-string. You can leave them out if you wish.)
D|----------------|
A|----------------|
F|-2~-5~-7~-9~----|
C|-0~-3~-5~-7~-7/-|
G|-0~-3~-5~-7~-7/-|
C|-0~-3~-5~-7~-7/-|

Riff 2:
Guitar 1:
D|-----------------------------------------------------------------------|
A|-----------------------------------------------------------------------|
F|-----------------------------------------------------------------------|
C|-----3-------000-----3---------3~-----3-------------------3---------3~-|
G|-3h5---5-3h5-000-3h5---5-3-5-3-3~-3h5---5-3h5-5+~-----3h5---5-3-5-3-3~-|
C|-------------000---------------3~-----------------3+~---------------3~-|

Guitar 2:
D|-----------------------------------------------------------------------|
A|-----------------------------------------------------------------------|
F|-----2---------------2----------------2-------------------2------------|
C|-2h3---3-2h3-000-2h3---3-------3~-2h3---3-2h3-3+~-0+~-2h3---3-------3~-|
G|-------------000---------3-5-3-3~-----------------------------3-5-3-3~-|
C|-------------000---------------3~-----------------------------------3~-|


Verse:
D|-------------------------------------------|
A|-----------------33-44---------------------|
F|-----222-----222-----------222-------------|
C|-000-----333-----------000-----333-2222-33-|  x5
G|-------------------------------------------|
C|-------------------------------------------|

D|----------------------------------------------|
A|-----------------33-44------------------------|
F|-----222-----222-----------222-------------2/-|
C|-000-----333-----------000-----333-2222-33----|  
G|----------------------------------------------|
C|----------------------------------------------|

Rhythm Guitar:
(Play after riff is played three times)
D|----------------|
A|----------------|
F|-2~-5~-7~-9~----|
C|-0~-3~-5~-7~-7/-|
G|-0~-3~-5~-7~-7/-|
C|-0~-3~-5~-7~-7/-|


Chorus:
Guitar 1:
D|----------------------------------------------------------------------|
A|----------------------------------------------------------------------|
F|----------------------------------------------------------------------|
C|-----3-------000-----3---------3~-----3-------000-----3---------------|
G|-3h5---5-3h5-000-3h5---5-3-5-3-3~-3h5---5-3h5-000-3h5---3-5-6666-8888-|
C|-------------000---------------3~-------------000---------------------|

Guitar 2:
D|----------------------------------------------------------------------|
A|------------------------------------------------------------4444-6666-|
F|-----2---------------2----------------2---------------2---------------|
C|-2h3---3-2h3-000-2h3---3-------3~-2h3---3-2h3-000-2h3---2-3-----------|
G|-------------000---------3-5-3-3~-------------000---------------------|
C|-------------000---------------3~-------------000---------------------|


Verse 2:
D|-------------------------------------------|
A|-----------------33-44---------------------|
F|-----222-----222-----------222-------------|
C|-000-----333-----------000-----333-2222-33-|  x5
G|-------------------------------------------|
C|-------------------------------------------|

D|----------------------------------------------|
A|-----------------33-44------------------------|
F|-----222-----222-----------222-------------2/-|
C|-000-----333-----------000-----333-2222-33----|  
G|----------------------------------------------|
C|----------------------------------------------|

Rhythm Guitar:
(Play after riff is played three times)
D|----------------|
A|----------------|
F|-2~-5~-7~-9~----|
C|-0~-3~-5~-7~-7/-|
G|-0~-3~-5~-7~-7/-|
C|-0~-3~-5~-7~-7/-|


Chorus 2:
Guitar 1:
D|--------------------------------------------------------------------|
A|--------------------------------------------------------------------|
F|--------------------------------------------------------------------|
C|-----3-------000-----3---------3~-----3-------000-----3-------------|
G|-3h5---5-3h5-000-3h5---5-3-5-3-3~-3h5---5-3h5-000-3h5---3-5-6666-88-|
C|-------------000---------------3~-------------000-------------------|

Guitar 2:
D|--------------------------------------------------------------------|
A|------------------------------------------------------------4444-66-|
F|-----2---------------2----------------2---------------2-------------|
C|-2h3---3-2h3-000-2h3---3-------3~-2h3---3-2h3-000-2h3---2-3---------|
G|-------------000---------3-5-3-3~-------------000-------------------|
C|-------------000---------------3~-------------000-------------------|


Bridge:
Guitar 1:
D|----------------------------------------------------------------------|
A|-----7/10+~-13\~------------------------------------------------------|
F|-7\~------------------------------------------------------------------|
C|------------------7--7--7--7-7--7--7--7--7-7--7--7--7-7--7--7--7-7777-|
G|------------------5--5--5--5-5--5--5--5--5-5--5--5--5-5--5--5--5-5555-|
C|----------------------------------------------------------------------|

Guitar 2:
(Listen to music for when you come in)
D|------------------------------------------------|
A|----------------------33-44---------------------|
F|----------222-----222-----------222-------------|
C|-0~---000-----333-----------000-----333-2222-33-|  x4
G|-0~---------------------------------------------|
C|-0~---------------------------------------------|


Pre-Chorus:
D|----|
A|----|
F|----|
C|-/~-|
G|-/~-|
C|-/~-|


Final Chorus:
Guitar 1:
D|--------------------------------------------------------------------|
A|--------------------------------------------------------------------|
F|--------------------------------------------------------------------|
C|-----3-------000-----3---------3~-----3-------000-----3-------------|  x2
G|-3h5---5-3h5-000-3h5---5-3-5-3-3~-3h5---5-3h5-000-3h5---3-5-6666-88-|
C|-------------000---------------3~-------------000-------------------|

Guitar 2:
D|--------------------------------------------------------------------|
A|------------------------------------------------------------4444-66-|
F|-----2---------------2----------------2---------------2-------------|
C|-2h3---3-2h3-000-2h3---3-------3~-2h3---3-2h3-000-2h3---2-3---------|  x2
G|-------------000---------3-5-3-3~-------------000-------------------|
C|-------------000---------------3~-------------000-------------------|


Outro:
D|------------------------|
A|------------------------|
F|------------------------|
C|------------------0-1---|
G|-----000----00----------|
C|-000-----33----33-----0-|

************************************

| /   slide up
| \   slide down
| h   hammer-on
| ~   vibrato
| +   harmonic
| x   Mute note
| b   Bend

************************************

If you have any comments/corrections, please say in either the comments box 
or leave me a message. Good luck and enjoy!

            
            
Suggest correction
Creating personal tab
Creating personal tab
You can edit any tab online and save it as your Personal.

You can edit, replace or remove any tab part or add personal notes – all changes will be seen only by you.

Personal tabs can be accessed anytime from any device, even offline.
Learn more »
comments
print report bad tab
5 comments total. Showing first comments.
+1 reply
18manu60 10 Feb 22, 2013 06:54 AM

In the intro it's 2 on the F-String - not 3

-2 reply
SIRRON_KCUHC 62 Feb 24, 2013 01:12 PM

This tab needs some work. Most of it is fairly close to the real thing, but some of the inflection on the strings you use is off. I'll post a tab that's a bit more... useable.

0 reply
MetalRock4ever 1,348 Feb 25, 2013 11:10 PM

Thanks for the corrections, it's been sometime since I tabbed this. I'll have another go. Thanks again. =)

guest
You may want to rate the tab now too:
select rating
Wanna post a correction for this tab? Suggest correction