Oops, an error
Loading. Please wait.

The End bass

version 1
version 1

Whole song

Interactive

4,336 views 1 this week
1 commentread comment
1 2 3 4 5
x 5
add to favorites
×
Save as Personal and add changes to this tab that will be seen only by you. Learn more ›
×
You can save this tab as Personal to edit and correct it or add notes. All changes will be seen only by you. Learn more »
launch autoscroll
font size
0
reset
guitar tuner
backing track
0:00
0:00
edit
Autoscroll
slow
fast
+/-
esc
set tempo
stop
-------------------------------------------------------------------------------
			     The End - Bullet For My Valentine
-------------------------------------------------------------------------------

Tabbed By : dannyloughran 

Tuning: Drop C (CGCF)

Intro (Enter 0:33)
F|----------------------------------------------------------------|
C|----------------------------------------------------------------|
G|----------------------------------------------------------------|
C|-0~~~----(0)~~----0~~~----(0)~~~--------------------------------|

Verse 1 (0:50)
F|----------------------------------------------------------------|
C|-----------------------------------------(2)(3)(2)--------------|
G|----------------------------------------------------------------|
C|-0~~~----(0)~~----2-3-2-0~~~----(0)~~---------------------------|x2

Bridge (1:23)
F|----------------------------------------------------------------|
C|----------------------------------------------------------------|
G|----------------------------------------------------------------|
C|-3~~~-----2~~~----2-3-2-3~~~----2~-0~--------------------12\----|

Chorus (1:39)
F|----------------------------------------------------------------|
C|----------------------------------------------------------------|
G|----------------------------------------------------------------|
C|-3-3-3-3-3-3-3-3-3-3-3-3-3-3-3-3-3-3-3-3-3-3-3-3-3-3-3-3-2-2-2-2|

F|----------------------------------------------------------------|
C|----------------------------------------------------------------|
G|----------------------------------------------------------------|
C|-5-5-5-5-5-5-5-5-5-5-5-5-5-5-5-5-5-5-5-5-5-5-5-5-5-5-5-5-5-5-5-5|

F|----------------------------------------------------------------|
C|----------------------------------------------------------------|
G|----------------------------------------------------------------|
C|-7-7-7-7-7-7-7-7-7-7-7-7-7-7-7-7-7-7-7-7-7-7-7-7-7-7-7-7-7-7-7-7|

F|----------------------------------------------------------------|
C|----------------------------------------------------------------|
G|-5--5--5--5--5--5--5--5--5--5--5--5-----------------------------|
C|-------------------------------------12\------------------------|

Verse 2 (1:56)
F|----------------------------------------------------------------|
C|----------------------------------------------------------------|
G|----------------------------------------------------------------|
C|-0~~~----(0)~~----2-3-2-0~~~----(0)~~----0-0-0-0-0-0-0-0-0~-----|

F|----------------------------------------------------------------|
C|-----------------------------------------(2)(3)(2)--------------|
G|----------------------------------------------------------------|
C|-0~~~----(0)~~----2-3-2-0~~~----(0)~~---------------------------|

Bridge (2:29)
F|----------------------------------------------------------------|
C|----------------------------------------------------------------|
G|----------------------------------------------------------------|
C|-3~~~-----2~~~----2-3-2-3~~~----2~-0~--------------------12\----|

Chorus (2:46)
F|----------------------------------------------------------------|
C|----------------------------------------------------------------|
G|----------------------------------------------------------------|
C|-3-3-3-3-3-3-3-3-3-3-3-3-3-3-3-3-3-3-3-3-3-3-3-3-3-3-3-3-2-2-2-2|

F|----------------------------------------------------------------|
C|----------------------------------------------------------------|
G|----------------------------------------------------------------|
C|-5-5-5-5-5-5-5-5-5-5-5-5-5-5-5-5-5-5-5-5-5-5-5-5-5-5-5-5-5-5-5-5|

F|----------------------------------------------------------------|
C|----------------------------------------------------------------|
G|----------------------------------------------------------------|
C|-7-7-7-7-7-7-7-7-7-7-7-7-7-7-7-7-7-7-7-7-7-7-7-7-7-7-7-7-7-7-7-7|

F|----------------------------------------------------------------|
C|----------------------------------------------------------------|
G|-5--5--5--5--5--5--5--5--5--5--5--5-----------------------------|
C|-------------------------------------12\------------------------|

Interlude 1 (3:03)
F|----------------------------------------------------------------|
C|----------------------------------------------------------------|
G|----------------------------------------------------------------|
C|-0-0-0-0-3---0-0-0-0-3---0-0-5---0-0-0-0-3---0-0-0-0-3---0-0-5--|

F|----------------------------------------------------------------|
C|----------------------------------------------------------------|
G|----------------------------------------------------------------|
C|-0-0-0-0-3---0-0-0-0-3---0-0-5---0-0-0-0-3---0-0-0-0-3---12\----|

F|----------------------------------------------------------------|
C|----------------------------------------------------------------|
G|----------------------------------------------------------------|
C|-0-0-0-0-3---0-0-0-0-3---0-0-5---0-0-0-0-3---0-0-0-0-3---0-0-5--|

F|----------------------------------------------------------------|
C|----------------------------------------------------------------|
G|----------------------------------------------------------------|
C|-0-0-0-0-3---0-0-0-0-3---0-0-5---0-0---------0-0---------0-0----|

Interlude 2 (3:19)
F|----------------------------------------------------------------|
C|----------------------------------------------------------------|
G|----------------------------8-----------------------------------|
C|-0~~~~~~~~~-----------------------------------------------------|

F|----------------------------------------------------------------|
C|----------------------------------------------------------------|
G|----------------------------------------------------------------|
C|---0-0-0-0-0-----0-0-0-0-0-----0-0-0-0-0-0----------------------|

F|----------------------------------------------------------------|
C|----------------------------------------------------------------|
G|-8--------------------------8-----------------------------------|
C|---0-0-0-0-0--6--0-0-0-0-0-----0-0-0-0-0-0-3-3-3-0-0-0----------|x2

F|----------------------------------------------------------------|
C|----------------------------------------------------------------|
G|----------------------------------------------------------------|
C|-3-3-3-3-3-3-3-3-3-3-3-3-3-3-3-3-3-3-3-3-3-3-3-3-3-3-3-3/5-5-5-5|

F|----------------------------------------------------------------|
C|----------------------------------------------------------------|
G|-8--------------------------8-----------------------------------|\
C|---0-0-0-0-0--6--0-0-0-0-0-----0-0-0-0-0-0-3-3-3-0-0-0----------| |
                                                                    | x2
F|----------------------------------------------------------------| |
C|----------------------------------------------------------------|/
G|----------------------------------------------------------------|
C|-3-3-3-3-3-3-3-3-3-3-3-3-3-3-3-3-3-3-3-3-3-3-3-3-3-3-3-3/5-5-5-5|

F|----------------------------------------------------------------|
C|----------------------------------------------------------------|
G|----------------------------------------------------------------|
C|-0~~~~~~--0----------------------------------------------12\----|

Interlude 1 (4:23)
F|----------------------------------------------------------------|
C|----------------------------------------------------------------|
G|----------------------------------------------------------------|
C|-0-0-0-0-3---0-0-0-0-3---0-0-5---0-0-0-0-3---0-0-0-0-3---0-0-5--|

F|----------------------------------------------------------------|
C|----------------------------------------------------------------|
G|----------------------------------------------------------------|
C|-0-0-0-0-3---0-0-0-0-3---0-0-5---0-0-0-0-3---0-0-0-0-3---12\----|

F|----------------------------------------------------------------|
C|----------------------------------------------------------------|
G|----------------------------------------------------------------|
C|-0-0-0-0-3---0-0-0-0-3---0-0-5---0-0-0-0-3---0-0-0-0-3---0-0-5--|

F|----------------------------------------------------------------|
C|----------------------------------------------------------------|
G|----------------------------------------------------------------|
C|-0-0-0-0-3---0-0-0-0-3---0-0-5---0-0---------0-0---------12/----|

Outro (4:39)
F|----------------------------------------------------------------|
C|----------------------------------------------------------------|
G|----------------------------------------------------------------|
C|-0-0-0-0-----0-0-0-0-----0-0-0-0-----0-0-0-0-----3-3-3-3-2-2-2--|x2

F|----------------------------------------------------------------|
C|----------------------------------------------------------------|
G|---------------r------------------------------------------------|
C|-0-0-0-0-----0---0-0-----0-0-0-0-----0-0-0-0-----3-3-3-3-2-2-2--|

F|----------------------------------------------------------------|
C|----------------------------------------------------------------|
G|----------------------------------------------------------------|
C|-0-0-0-0-----0-0-0-0-----0-0-0-0-----0-0-0-0-----3-3-3-3-2-2-2--|
  (4:56)
F|----------------------------------------------------------------|
C|----------------------------------------------------------------|
G|----------------------------------------------------------------|
C|-0~~~~~~~~~~~~~~~~----------------------------------------------|

enjoy :)
please rate this and my other tabs, any mistakes or corrections 
then do not hesitate to PM me, thanks

| /  slide up
| \  slide down
| h  hammer-on
| p  pull-off
| v  vibrato
| r  rest
| ~  let ring
| x  mute note
|(?) ghost note
===============================================================================

            
            
Suggest correction
Creating personal tab
Creating personal tab
You can edit any tab online and save it as your Personal.

You can edit, replace or remove any tab part or add personal notes – all changes will be seen only by you.

Personal tabs can be accessed anytime from any device, even offline.
Learn more »
comments
print report bad tab
1 comment total.
0 reply
Bass Shredder27 73 Sep 26, 2009 07:41 AM

Awesome.

guest
You may want to rate the tab now too:
select rating
Wanna post a correction for this tab? Suggest correction