Oops, an error
Loading. Please wait.

The End tab

version 3
version 3

Interactive

64,036 views 27 this week
16 commentsread comments
1 2 3 4 5
x 30
add to favorites
×
Save as Personal and add changes to this tab that will be seen only by you. Learn more ›
×
You can save this tab as Personal to edit and correct it or add notes. All changes will be seen only by you. Learn more »
launch autoscroll
font size
0
reset
how to read this tab
guitar tuner
backing track
0:00
0:00
edit
Autoscroll
slow
fast
+/-
esc
set tempo
stop
Tuning: Drop C

[Intro]
(Guitar 1) 
(Clean 0:00) 
D|-------------------------------------------------------------------|
A|-------------------------------------------------------------------|
F|-------------------------------------------------------------------|(x3)
C|---15-14—-15--15-14--12--------------------------------------------|
G|--0--0--00---0--0--00----------------------------------------------|
C|-0----------0------------------------------------------------------|

(0:25)
D|------------------------------------3------------------------------|
A|-------------------------------------3-----------------------------|
F|--------------------------------------0----------------------------|
C|---15--14---15/17----15-14\12-10-----------------------------------|
G|--0---0---00------0-0--0-----0-------------------------------------|
C|-0---------------0-------------------------------------------------|
  
[Verse]
(Clean - Guitar 1)
(0:33)
D|-------------------------------------------------------------------|
A|-------------------------------------------------------------------|
F|-------------------------------------------------------------------|(x3)
C|---15-14---15-14---------------15-14--15-1414/16-------------------|
G|--0--0---00--0--00-15151715---0--0--00--0--------------------------|
C|-0---------------------------0-------------------------------------|
                                                                                         
D|-------------------------------------------------------------------|
A|-------------------------------------------------------------------|
F|-------------------------------------------------------------------|
C|--15-14--15-14-15/17---15-14--15-14--------------15-14/12-12-------|
G|-0--0--00--0--0-------0--0--00--0--00-15151715--0--0-----0---------|
C|0--------------------0-------------------------0-------------------|
                                                  
D|-------------------------------------------------------------------|
A|-------------------------------------------------------------------|
F|-------------------------------------------------------------------|
C|---15--14---15-14--------------15-14\12-12-------------------------|
G|--0---0---00--0--00-15151715--0--0-----0---------------------------|
C|-0---------------------------0-------------------------------------|
  
[Verse] 
(Dist - Guitar 2)
(1:23)
D|-------------------------------------------------------------------|
A|--9h10~~~-10b12r9~~~-12h14~~~-14b15r12/10~~~-----------------------|
F|-------------------------------------------------------------------|
C|-------------------------------------------------------------------|
G|-------------------------------------------------------------------|
C|-------------------------------------------------------------------|
  
(Guitar 2)
(1:40)
D|-------------------------------------------------------------------|
A|-------------------------------------------------------------------|
F|-------------------------------------------------------------------|
C|-7tp/8888\5tp/10tp/12~~~-4-----------------------------------------|
G|-------------------------4-Whammy Bend-----------------------------|
C|-------------------------4-----------------------------------------|
  
(Guitar 1)
(1:40)
D|-------------------------------------------------------------------|
A|-------------------------------------------------------------------|
F|-10tp/9999\12tp/14tp/17~~~-----------------------------------------|
C|-------------------------------------------------------------------|
G|-------------------------------------------------------------------|
C|-------------------------------------------------------------------|

(Guitar 2)
(2:10)
D|-------------------------------------------------------------------|
A|-------------------------------------------------------------------|
F|-------------------------------------------------------------------|
C|-00000000----------------------------------------------------------|
G|-00000000----------------------------------------------------------|
C|-00000000----------------------------------------------------------|
   xxxxxxxx
  
[Both Guitars]
(3:02)
D|-------------------------------------------------------------------|
A|-------------------------------------------------------------------|
F|-------------------------------------------------------------------|
C|-----7----7---7-----7------7------7--------0-10\-------------------|
G|-0000800008-007-00008--00008--00-10-((x2))---0-10\-------------------|
C|-0000-0000--00--0000---0000---00-----------0-10\-------------------|
   xxxx xxxx  xx  xxxx   xxxx   xx
  
(Guitar 2) 
(3:17)
D|-------------------------------------------------------------------|
A|-------------------------------------------------------------------|
F|-------------------------------------------------------------------|
C|-0000-7p0-5p0------3p0-2p0-----2h3----0----------------------------|
G|-0000---------------------------------0----------------------------|
C|-0000---------0000-----------00-------0----------------------------|
   xxxx         xxxx           xx
   
(Guitar 2)
(3:27)
D|-------------------------------------------------------------------|
A|-------------------------------------------------------------------|
F|-10/----------------7/--------9h10p9-5h7---------------------------|
C|-10/--------6-------7/---------------------------------------------|
G|-8-/--0000--6-0000—-5/-000000--------------------------------------|
C|------0000--6-0000-----000000--------------------------------------|
        xxxx    xxxx     xxxxxx

(Guitar 1)
(3:35)
D|-------------------------------------------------------------------|
A|-------------------------------------------------------------------|
F|--------------------------10/--------------------------------------|
C|-----------8/------6------10/--------------------------------------|
G|-7h8p7-3h5----0000-6-0000—-8/-000000-7h8p7-3h5---------------------|
C|--------------0000-6-0000-----000000-------------------------------|
                xxxx   xxxx     xxxxxx

(Guitar 2)
(3:44)
D|-------------------------------------------------------------------|
A|-------------------------------------------------------------------|
F|-10-10-10-9-9-9-12-12-12-9-9-9-10-10-10-10-------------------------|
C|-------------------------------------------------------------------|(x2)
G|-------------------------------------------------------------------|
C|-------------------------------------------------------------------|
 
(Guitar 1)
(3:44)
D|-------------------------------------------------------------------|
A|-10-10-10-8-8-8-11-11-11-8-8-8-10-10-10-10-------------------------|
F|-------------------------------------------------------------------|(x2)
C|-------------------------------------------------------------------|
G|-------------------------------------------------------------------|
C|-------------------------------------------------------------------|

D|-------------------------------------------------------------------|
A|-------------------------------------------------------------------|
F|-------------------------------------------------------------------|
C|----15---14-----15-----15---14-----12------------------------------|
G|--0----0----0-0------0----0----0-0---------------------------------|
C|0------------------0-----------------------------------------------|

D|-------------------------------------------------------------------|
A|-------------------------------------------------------------------|
F|-------------------------------------------------------------------|
C|0----15---14-----15/17-----15---14\12---12-------------------------|
G|0--0----0----0-0---------0----0-------0----------------------------|
C|0---------------------0--------------------------------------------|

D|-------------------------------------------------------------------|
A|-------------------------------------------------------------------|
F|-------------------------------------------------------------------|(x6)
C|/0000--15--0000--15-0000--14\\-------------------------------------|
G|/0000--15--0000--15-0000--14\\-------------------------------------|
C|/0000--15--0000--15-0000--14\\-------------------------------------|
   xxxx      xxxx     xxxx
D|-------------------------------------------------------------------|
A|-------------------------------------------------------------------|
F|-------------------------------------------------------------------|(x6)
C|/0000--15--0000--15-0000--14\\---3p0-0h2-2h5-0h2-2h3---------------|
G|/0000--15--0000--15-0000--14\\-------------------------------------|
C|/0000--15--0000--15-0000--14\\-------------------------------------|
   xxxx      xxxx     xxxx

[Outro]
D|-------------------------------------------------------------------|
A|-------------------------------------------------------------------|
F|-------------------------------------------------------------------|
C|-0----0h3p0-0h2p0--5-3---------------------------------------------|
G|-0-----------------------------------------------------------------|
C|-0-----------------------------------------------------------------|
   x

D|-------------------------------------------------------------------|
A|-------------------------------------------------------------------|
F|-------------------------------------------------------------------|
C|----15---14-----15-----15---14-----12------------------------------|
G|--0----0----0-0------0----0----0-0---------------------------------|
C|0------------------0-----------------------------------------------|



************************************

| /  Slide up
| \  Slide down
| h  Hammer-on
| r  Release
| b  Bend
| ~  Vibrato
| p  Pull-off

************************************

            
            
Suggest correction
Creating personal tab
Creating personal tab
You can edit any tab online and save it as your Personal.

You can edit, replace or remove any tab part or add personal notes – all changes will be seen only by you.

Personal tabs can be accessed anytime from any device, even offline.
Learn more »
comments
print report bad tab
16 comments total. Showing first comments.
+3 reply
Hardcore_lvr 31 Mar 06, 2007 05:04 AM

Nice! 5 Stars!!!!

-2 reply
maggot-666 10 Jun 15, 2007 07:43 AM

i think its easier to play the main rifff into thing like this :

D|----------------------------------------------------------------|
A|----------------------------------------------------------------|
F|----10-9--10---10-9--7----------------------------------------|x3
C|----—----------------------------------------------------------|
G|--0--0--00---0--0--00-------------------------------------------|
C|-0----------0------------------------------------------------------|


But ye its basically the same
Good tabbing.

0 reply
JRohrer14 10 Jun 29, 2007 09:58 AM

good tab bro this is by far the best tab for this song and great song to tab to thanks a lot

guest
You may want to rate the tab now too:
select rating
Wanna post a correction for this tab? Suggest correction