Oops, an error
Loading. Please wait.

The End tab

version 4
version 4

Interactive

5,414 views 1 this week
2 commentsread comments
1 2 3 4 5
x 7
add to favorites
×
Save as Personal and add changes to this tab that will be seen only by you. Learn more ›
×
You can save this tab as Personal to edit and correct it or add notes. All changes will be seen only by you. Learn more »
launch autoscroll
font size
0
reset
how to read this tab
guitar tuner
backing track
0:00
0:00
edit
Autoscroll
slow
fast
+/-
esc
set tempo
stop
Author
Drop C

Intro
Gtr 1 - Clean
|-----------------------------------------|
|-----------------------------------------|
|------10---9-----10--------10---9-----7--|
|-------------0--------------------0------|
|----0----0-----0---------0----0-----0----|
|--0--------------------0-----------------| x3

|---------------------------------------------------|
|---------------------------------------------------|
|------10---9-----10/12-------10---9-----7----------|
|-------------0----------------------0--------------|
|----0----0-----0-----------0----0-----0------------|
|--0----------------------0-------------------------|

Gtr 2 - Clean
|---------------------------------------------------|
|-----------------------------10---8/6---6----6-----|
|----------------------------------------------7----|
|-----------------------------------------------7---|
|------------------------------------------------5--|
|---------------------------------------------------|
 
Verse 1
Gtr 1 - Clean
|------------------------------------------------------------------|
|------------------------------------------------------------------|
|------10---9-----10---9-----5-5-7-5------10---9-----10---9-10/12--|
|-------------0------0---0-----------------------0------0----------|
|----0----0-----0----------0------------0----0-----0---------------|
|--0----------------------------------0----------------------------|
                                                                     x3
|---------------------------------------------------------------|
|---------------------------------------------------------------|
|------10---9-----10---9-----5-5-7-5------10---9-/-7-7----------|
|-------------0------0---0-----------------------0--------------|
|----0----0-----0----------0------------0----0-----0------------|
|--0----------------------------------0-------------------------|

Gtr 2 - Clean                                                 2.
|---------------------------------------------------------------|
|---------------------------------------------------------6-----|
|----------------------------------------------------------7----|
|-----------------------------------------------------------7---|
|------------------------------------------------------------5--|
|---------------------------------------------------------------|
                                                              3.
|---------------------------------------------------------------|
|-----------------------------------------10---8-/-6-6----------|
|---------------------------------------------------------------|
|---------------------------------------------------------------|
|---------------------------------------------------------------|
|---------------------------------------------------------------|

Gtr 1 - Clean
|--------------------------------------------|
|--------------------------------------------|
|------10---9-----10--------10---9-----7-----|
|-------------0--------------------0---------|
|----0----0-----0---------0----0-----0-------|
|--0--------------------0--------------------| x2

Gtr 2 - Dist.
|--------------------------------------------|
|--------------------------------------------|
|--9/10~------------/12\9~-------------------|
|--------------------------------------------|
|--------------------------------------------|
|--------------------------------------------|

|--------------------------------------------|
|--------------------------------------------|
|--9/10~------------/12\9~---------------\7--|
|--------------------------------------------|
|--------------------------------------------|
|--------------------------------------------|

Gtr 3 - Dist.                              2.
|--------------------------------------------|
|--8/10~------------/11\8~---------------\3--|
|--------------------------------------------|
|--------------------------------------------|
|--------------------------------------------|
|--------------------------------------------|

Pre-Chorus
Gtr 1 - Dist.
|---------------------------------------------------|
|---------------------------------------------------|
|---------------------------------------------------|
|---7-(x28)-8888--5-(x32)-10-(x32)-12-(x12)-4b------|
|-------------------------------------------4b------|
|-------------------------------------------4b------|

Gtr 2 - Dist.                                  Clean
|---------------------------------------------------|
|------------------------------------------------6--|
|--10-(x28)-9999-12-(x32)-14-(x32)-19-(x12)------7--|
|-------------------------------------------4b---7--|
|-------------------------------------------4b---5--|
|-------------------------------------------4b------|

Verse 2
Gtr 1 - Clean
|------------------------------------------------------------------|
|------------------------------------------------------------------|
|------10---9-----10---9-----5-5-7-5------10---9-----10---9-10/12--|
|-------------0------0---0-----------------------0------0----------|
|----0----0-----0----------0------------0----0-----0---------------|
|--0----------------------------------0----------------------------|
                                                                     x2
|------------------------------------------------------------------|
|------------------------------------------------------------------|
|------10---9-----10---9-----5-5-7-5------10---9-/-7-7-------------|
|-------------0------0---0-----------------------0-----------------|
|----0----0-----0----------0------------0----0-----0---------------|
|--0----------------------------------0----------------------------|

Gtr 2 - Clean
|------------------------------------------------------------------|
|------------------------------------------------------------------|
|------------------------------------------------------------------|
|------------------------------------------------------------------|
|-------------------------------------------------------000000000--|
|-------------------------------------------------------000000000--|

|------------------------------------------------------------------|
|-----------------------------------------10---8-/-6-6-------------|
|------------------------------------------------------------------|
|------------------------------------------------------------------|
|------------------------------------------------------------------|
|------------------------------------------------------------------|

Gtr 1 - Clean
|--------------------------------------------|
|--------------------------------------------|
|------10---9-----10--------10---9-----7-----|
|-------------0--------------------0---------|
|----0----0-----0---------0----0-----0-------|
|--0--------------------0--------------------| x2

Gtr 2 - Dist.
|--------------------------------------------|
|--------------------------------------------|
|--9/10~------------/12\9~-------------------|
|--------------------------------------------|
|--------------------------------------------|
|--------------------------------------------|

|--------------------------------------------|
|--------------------------------------------|
|--9/10~------------/12\9~---------------\7--|
|--------------------------------------------|
|--------------------------------------------|
|--------------------------------------------|

Gtr 3 - Dist.                              2.
|--------------------------------------------|
|--8/10~------------/11\8~---------------\3--|
|--------------------------------------------|
|--------------------------------------------|
|--------------------------------------------|
|--------------------------------------------|

Pre-Chorus
Gtr 1 - Dist.
|-----------------------------------------------|
|-----------------------------------------------|
|-----------------------------------------------|
|---7-(x28)-8888--5-(x32)-10-(x32)-12-(x14)-x\--|
|-------------------------------------------x\--|
|-------------------------------------------x\--|

Gtr 2 - Dist.
|-----------------------------------------------|
|-----------------------------------------------|
|--10-(x28)-9999-12-(x32)-14-(x32)-19-(x14)-----|
|-------------------------------------------x\--|
|-------------------------------------------x\--|
|-------------------------------------------x\--|

Chorus
Both Guitars - Dist.
|------------------------------------------|
|------------------------------------------|
|------------------------------------------|
|-------7------7----7------7------7-----7--|
|--0000-8-0000-8-00-7-0000-8-0000-8-00-10--|
|--0000---0000---00---0000---0000---00-----|

|------------------------------------------|
|------------------------------------------|
|------------------------------------------|
|-------7------7-----7------7------7--12\--|
|--0000-8-0000-8--00-7-0000-8-0000-8--12\--|
|--0000---0000----00---0000---0000----12\--|

|------------------------------------------|
|------------------------------------------|
|------------------------------------------|
|-------7------7----7------7------7-----7--|
|--0000-8-0000-8-00-7-0000-8-0000-8-00-10--|
|--0000---0000---00---0000---0000---00-----|

Gtr 1 - Dist.
|-----------------------------------------------------------|
|-----------------------------------------------------------|
|-----------------------------------------------------------|
|--00-3p0-2p0----5p0-2p0----2h3-0-----------------------x\--|
|--00---------------------------0-----------------------x\--|
|--00---------00---------00-----0-----------------------x\--|

Gtr 2 - Dist.
|----------------------------------|
|----------------------------------|
|----------------------------------|
|--00-7p0-5p0----8p0-7p0----5h7-0--|
|--00---------------------------0--|
|--00---------00---------00-----0--|

Interlude 1 Part 1
Gtr 1 - Dist.
|--------------------------------------------|
|--------------------------------------------|
|--10\---------------10--------9h10p9---5h7--|
|--10\-------6-------10----------------------|
|---8\-00000-6-00000—-8-000000---------------|
|------00000-6-00000----000000--------0------|

Gtr 2 - Dist.
|------------------------------------------|
|------------------------------------------|
|--10\-------------------------------------|
|--10\-------------------------------------|
|---8\-------------------------------------|
|------------------------------------------|

Gtr 1 - Dist.
|--------------------------------------------|
|--------------------------------------------|
|--------------------10--------9h10p9---5h7--|
|------------6-------10----------------------|
|---8\-00000-6-00000—-8-000000---------------|
|------00000-6-00000----000000--------0------|
Gtr 2 - Dist.
|--------------------------------------------|
|--------------------------------------------|
|--------------------------------------------|
|--------------------------------------------|
|------00000---00000----000000-7h-8p7---3h5--|
|------00000---00000----000000--------0------|

Gtr 1 - Dist.
|-------------------------------------------|
|-------------------------------------------|
|-------------------10--------9h10p9---5h7--|
|-----------6-------10----------------------|
|--8\-00000-6-00000—-8-000000---------------|
|-----00000-6-00000----000000--------0------|

Gtr 2 - Dist.
|-------------------------------------------|
|-------------------------------------------|
|-------------------10----------------------|
|-----------6-------10----------------------|
|--8\-00000-6-00000--8-000000-7h-8p7---3h5--|
|-----00000-6-00000----000000--------0------|

Interlude 1 Part 2 x3
Gtr 1 - Dist.
|-------------------------------------------|
|-------------------------------------------|
|-------------------10--------9h10p9---5h7--|
|-----------6-------10----------------------|
|--8\-00000-6-00000—-8-000000---------------|
|-----00000-6-00000----000000--------0------|

Gtr 2 - Dist.
|-------------------------------------------|
|-------------------------------------------|
|-------------------10----------------------|
|-----------6-------10----------------------|
|--8\-00000-6-00000--8-000000-7h-8p7---3h5--|
|-----00000-6-00000----000000--------0------|

Guitar 1 - 3:44
|---------------------------------------|
|---------------------------------------|
|--10-10-10-9-9-9-12-12-12-9-9-9-9-9-9--|
|---------------------------------------|
|---------------------------------------|
|---------------------------------------| x2
 
Guitar 2 - 3:44
|---------------------------------------|
|--10-10-10-8-8-8-11-11-11-8-8-8-8-8-8--|
|---------------------------------------|
|---------------------------------------|
|---------------------------------------|
|---------------------------------------| x2

Bridge
Gtr 1 - Clean
|-----------------------------------------|
|-----------------------------------------|
|------10---9-----10--------10---9-----7--|
|-------------0--------------------0------|
|----0----0-----0---------0----0-----0----|
|--0--------------------0-----------------|

Gtr 2 - Dist.
|-----------------------------------------|
|-----------------------------------------|
|-----------------------------------------|
|--0~-------------------------------------|
|--0~-------------------------------------|
|--0~-------------------------------------|

Gtr 1 - Clean
|-------------------------------------------|
|-------------------------------------------|
|------10---9-----10/12-------10---9-----7--|
|-------------0----------------------0------|
|----0----0-----0-----------0----0-----0----|
|--0----------------------0-----------------|

Gtr 2 - Dist.                Clean
|-------------------------------------------|
|-----------------------------10---8/6---6--|
|-------------------------------------------|
|--x----------------------------------------|
|--x----------------------------------------|
|--x----------------------------------------|

Chorus

Interlude 2
Gtr 1 - Dist.
|------------------------------------------|
|------------------------------------------|
|------------------------------------------|
|--0000--0000--0000--0000--7p0-5p0--8p0-7--|
|--0000--0000--0000--0000------------------|
|--0000--0000--0000--0000------------------| x2

Gtr 2 - Dist.
|------------------------------------------|
|------------------------------------------|
|------------------------------------------|
|--0000--0000--0000--0000------------------|
|--0000--0000--0000--0000--8p0-7p0-10p0-8--|
|--0000--0000--0000--0000------------------| x2

Gtr 1 - Dist.
|------------------------------------------|
|------------------------------------------|
|------------------------------------------|
|--0000--0-00--0000--0000--7p0-5p0--8p0-7--|
|--0000--0-00--0000--0000------------------|
|--0000--0-00--0000--0000------------------|

Gtr 2 - Dist.
|------------------------------------------|
|------------------------------------------|
|------------------------------------------|
|--0000--0-00--0000--0000------------------|
|--0000--0-00--0000--0000--8p0-7p0-10p0-8--|
|--0000--0-00--0000--0000------------------|

Gtr 1 - Dist.
|------------------------------------------|
|------------------------------------------|
|------------------------------------------|
|--0000--0000--0000--0000--7p0-5p0--8p0-7--|
|--0000--0000--0000--0000------------------|
|--0000--0000--0000--0000------------------|

Gtr 2 - Dist.
|------------------------------------------|
|------------------------------------------|
|------------------------------------------|
|--0000--0000--0000--0000------------------|
|--0000--0000--0000--0000--8p0-7p0-10p0-8--|
|--0000--0000--0000--0000------------------|

Outro
Gtr 1 - Clean
|------------------------------------------|
|------------------------------------------|
|-------10---9-----10--------10---9-----7--|
|--------------0--------------------0------|
|-----0----0-----0---------0----0-----0----|
|---0--------------------0-----------------| x14

Gtr 2 - Dist.
|------------------------------------------|
|------------------------------------------|
|------------------------------------------|
|---0~-------------------------------------|
|---0~-------------------------------------|
|---0~-------------------------------------|

|--\10-------------\8--/13------------/15--|
|------------------------------------------|
|--\-7-------------\5--/10------------/12--|
|------------------------------------------|
|------------------------------------------|
|------------------------------------------|
                                             x6
|--\10-------------\8--/13------------\11--|
|------------------------------------------|
|--\-7-------------\5--/10------------\-9--|
|------------------------------------------|
|------------------------------------------|
|------------------------------------------|

Gtr 3 - Dist.
|--/13------------\12--\10-------------\8--|
|------------------------------------------|
|------------------------------------------|
|------------------------------------------|
|------------------------------------------|
|------------------------------------------| x12

            
            
Suggest correction
Creating personal tab
Creating personal tab
You can edit any tab online and save it as your Personal.

You can edit, replace or remove any tab part or add personal notes – all changes will be seen only by you.

Personal tabs can be accessed anytime from any device, even offline.
Learn more »
comments
print report bad tab
2 comments total.
0 reply
Chaz13 110 Feb 28, 2008 12:01 AM

awesome tab. perfect!

0 reply
slinkar3 10 Mar 17, 2008 10:38 AM

ya fool this tab is legit!
****ing right on the money

guest
You may want to rate the tab now too:
select rating
Wanna post a correction for this tab? Suggest correction