Oops, an error
Loading. Please wait.
We have an official The Last Fight tab made by UG professional guitarists. Check out the tab »
×
71,638 views 18 this week
23 commentsread comments
1 2 3 4 5
x 30
add to favorites
guitar tuner
Autoscroll
slow
fast
+/-
esc
set tempo
stop
"The Last Fight"
demo version
Play now

or get full version for Free

×
Get full version now!
Learn and play this song
in Tab Pro
Try for free

or get $10 off Welcome Bonus

Get welcome bonus
Get access to Tab Pro version of “The Last Fight”!
Tab Pro is a premium guitar tab service, available on PC, Mac, iOS and Android
TRY FOR FREE
Your download will start in 7 seconds
×
Like this song? We have more! Follow us on Facebook for daily tips, lessons and other guitar-related content.
To download “The Last Fight” Guitar Pro tab click button below
Please note that you must have Guitar Pro software installed on your
computer in order to view this file.
Suggest correction
comments
report bad tab
23 comments total. Showing first comments.
0 reply
Jimmis100gr 10 Mar 23, 2010 11:56 AM

there few mistakes and the solo i wrong.. 3 stars some parts are.. hmm ok

0 reply
D'sa 320 Mar 23, 2010 01:37 PM

Would be nice if you could say WHAT is wrong... would help me :) and i dont think that the solo is wrong maybe the rythm isnt perfect but the tones are right...

+2 reply
Spitty33 140 Mar 23, 2010 05:28 PM

(0:07)#
|---------------------------------------|
|-----------------------------------8---|
|--------7------9------------9----------|
|-----5------5------------7------7------|
|-3-------------------5-----------------|
|---------------------------------------|

(0:07)
|----------3~~---------------5~~--------|
|------3-----------------5--------------|
|--------5-----------------7------------|
|-5~~-5-------------7~~-7---------------|
|-3~~---------------5~~-----------------|
|---------------------------------------|

guest
You may want to rate the tab now too:
select rating