Oops, an error
Loading. Please wait.
We have an official The Poison tab made by UG professional guitarists. Check out the tab »
×
7,508 views 1 this week
4 commentsread comments
1 2 3 4 5
x 3
add to favorites
×
Save as Personal and add changes to this tab that will be seen only by you. Learn more ›
×
You can save this tab as Personal to edit and correct it or add notes. All changes will be seen only by you. Learn more »
launch autoscroll
font size
0
reset
guitar tuner
backing track
0:00
0:00
edit
Autoscroll
slow
fast
+/-
esc
set tempo
stop
-------------------------------------------------------------------------------
			     The Poison - Bullet For My Valentine
-------------------------------------------------------------------------------

Tabbed By: shadowedude

Not me, the guy who tabbed The Poison (ver 4) Guitar Pro Tab. I just put the tabs on 
and I think that these are great tabs, so they should be available to the world without 
pro!

Tuning: Drop C (CGCF)

This tab is really long but not that hard. Find the rythm!

Intro
F|---------------------------------------------------------------------------|
C|---------------------------------------------------------------------------|
G|---------------------------------------------------------------------------|
C|-2----------------------2----------------------2---------------------------|

F|---------------------|
C|---------------------|
G|---------------------|
C|-2-2-2-2-2-2-2-2-2---|

Verse (Now, is your time to die!) x2
F|----------------------------------------------------|
C|----------------------------------------------------|
G|----3----3-3-3-3------------------------------------|
C|------------------5---5--9--9---2--2-222-222-222----|

F|----------------------------------------------------|
C|----5-5-5-5-5-5-7-7-7-7-4-4-4-4---------------------|
G|----------------------------------------------------|
C|--------------------------------2--2-222-222-222----|

Last time dont play the 222-222-222 part on the end, just a nice smooth 2--2

Intro riff
F|---------------------|
C|---------------------|
G|---------------------|
C|-0-0-0-0-0-0-0-0-0---|

Verse cont. (Feel, pain, no more)
F|----------------------------------------------------|
C|----------------------------------------------------|
G|----3----3-3-3-3------------------------------------|
C|------------------5---5--9--9---2--2-222-222-222----|

F|----------------------------------------------------|
C|----5-5-5-5-5-5-7-7-7-7-4-4-4-4---------------------|
G|----------------------------------------------------|
C|--------------------------------2--2-222-222-222----|

F|----------------------------------------------------|
C|----------------------------------------------------|
G|----3----3-3-3-3------------------------------------|
C|------------------5---5--9--9---2--2-222-222-222----|

F|------------------------x--x------|
C|----5-5-5-5-5-5-7-7-7-7-x--x------|
G|------------------------x--x------|
C|------------------------x--x---2--|

Chorus (Holding on to you, to keep from falling)
F|--------------------------------------------------------------------|
C|--------------------------------------------------------------------|
G|------------------3----3-3-3-3-3-3---------------3---3---2---2------|
C|---2-2-2-2-2-2---------------------5---5-5-5-5-5----------------2---| 2x

F|--------------|
C|--------------|
G|--------------|
C|--2--2--2--2--|

Verse 2 (Hard, times, we always saw)
F|----------------------------------------------------|
C|----------------------------------------------------|
G|----3----3-3-3-3------------------------------------|
C|------------------5---5--9--9---2--2-222-222-222----|

F|----------------------------------------------------|
C|----5-5-5-5-5-5-7-7-7-7-4-4-4-4---------------------|
G|----------------------------------------------------|
C|--------------------------------2--2-222-222-222----|

F|----------------------------------------------------|
C|----------------------------------------------------|
G|----3----3-3-3-3------------------------------------|
C|------------------5---5--9--9---2--2-222-222-222----|

F|------------------------x--x------|
C|----5-5-5-5-5-5-7-7-7-7-x--x------|
G|------------------------x--x------|
C|------------------------x--x---2--|

Chorus (Holding on to you, to keep from falling)
F|--------------------------------------------------------------------|
C|--------------------------------------------------------------------|
G|------------------3----3-3-3-3-3-3---------------3---3---2---2------|
C|---2-2-2-2-2-2---------------------5---5-5-5-5-5----------------2---| 4x

F|--------------|
C|--------------|
G|--------------|
C|--2--2--2--2--|

Solo
F|-------------------------------------------------------------|
C|-------------------------------------------------------------|
G|--3----3-3-3-3--3----3-3--3-3-----------------------------3--|
C|------------------------------2-2--2-2-2-2---2---2-2--2-2----|

F|-------------------------------------------------------------------|
C|-------------------------------------------------------------------|
G|--3-3-3-3--3---3-3--3-3-5---5-5-5-5--5---5-5--5-5-3----3-3-3-3--3--|
C|-------------------------------------------------------------------|

F|----------------------------------------|
C|----------------------------------------|
G|--3-3--3-3---------------------------3--|
C|-----------2--2-2-2-2---2---2-2--2-2----|

F|-----------------------------------------------------|
C|-----------------------------------------------------|
G|--3-3-3-3--3---3-3--3-3-5---5-5-5-5--5---5-5--5-5-3--|
C|-----------------------------------------------------|

Breakdown (when he sings Holding on to you!)
F|-------------|
C|-------------|
G|-------------|
C|-2--2--2--2--|

F|-----------------------------|
C|-----------------------------|
G|-----------------------------|
C|--222222222---222222222------| 4x

F|---------------------------------|
C|---------------------------------|
G|---------------------------------|
C|--2-2-2-2-2--2-2-2-2-2--2-2-2-2--|

F|------------------------------------------------------------------|
C|------------------------------------------------------------------|
F|------------------------------------------------------------------|
C|--3-3-3-3---3-3-3-3-3---3-3-3-3----5-5-5-5---5-5-5-5-5---5-5-5-5--|

F|------------------------------------------------------------------|
C|------------------------------------------------------------------|
G|------------------------------------------------------------------|
C|--3-3-3-3---3-3-3-3-3---3-3-3-3----2-2-2-2---2-2-2-2-2---2-2-2-2--|

F|------------------------------------------------------------------|
C|------------------------------------------------------------------|
G|------------------------------------------------------------------|
C|--3-3-3-3---3-3-3-3-3---3-3-3-3----5-5-5-5---5-5-5-5-5---5-5-5-5--|

F|------------------------------------------------------------------|
C|------------------------------------------------------------------|
G|------------------------------------------------------------------|
C|--3-3-3-3---3-3-3-3-3---3-3-3-3----2---------2---------2----------|

Chorus
F|--------------------------------------------------------------------------|
C|--------------------------------------------------------------------------|
G|---------------------------------------3---------------3---3---2---2------|
C|--0-0-0-0-0-0-0-0-0-0-0-0-0-0-0-2-------------5------5-----------------2--|

F|--------------------------------------------------------------------|
C|--------------------------------------------------------------------|
G|------------------3----3-3-3-3-3-3---------------3---3---2---2------|
C|---2-2-2-2-2-2---------------------5---5-5-5-5-5----------------2---| 8x

F|---------------------------|
C|---------------------------|
G|------------------5--(5)---|
C|-2--2--2--2----------------|


| /  slide up
| \  slide down
| h  hammer-on
| p  pull-off
| ~  vibrato
| +  harmonic
| x  Mute note
===============================================================================

            
            
Suggest correction
Creating personal tab
Creating personal tab
You can edit any tab online and save it as your Personal.

You can edit, replace or remove any tab part or add personal notes – all changes will be seen only by you.

Personal tabs can be accessed anytime from any device, even offline.
Learn more »
Give kudos to tab author, rate the tab!
1 2 3 4 5
comments
print report bad tab
4 comments total. Showing first comments.
0 reply
decky123 31 Jul 29, 2007 06:22 AM

wrong =[ ...sorry 2 stars

0 reply
vikkoo 94 Jul 29, 2007 11:58 AM

I think it sounds good =[[[[[

0 reply
deadhand329 2,339 Nov 11, 2007 10:17 AM

i think it sounded alright...i give it four stars

guest
You may want to rate the tab now too:
select rating
Wanna post a correction for this tab? Suggest correction