Oops, an error
Loading. Please wait.
We have an official The Poison tab made by UG professional guitarists. Check out the tab »
×
12,547 views 30 this week
4 commentsread comments
1 2 3 4 5
x 6
add to favorites
×
Save as Personal and add changes to this tab that will be seen only by you. Learn more ›
×
You can save this tab as Personal to edit and correct it or add notes. All changes will be seen only by you. Learn more »
launch autoscroll
font size
0
reset
how to read this tab
guitar tuner
backing track
0:00
0:00
edit
Autoscroll
slow
fast
+/-
esc
set tempo
stop
Author
-------------------------------------------------------------------------------
                             The Poison - Bullet for my Valentine
-------------------------------------------------------------------------------
Tabbed by: Braden Bloxham
Email: sbfreak7785@hotmail.com

Watch me play it at: http://www.youtube.com/watch?v=mi4tGXSqKBs

Tuning: CGCFAD

| /  slide up
| \  slide down
| h  hammer-on
| p  pull-off
| ~  vibrato
| +  pinch harmonic                    INTRO
| x  mute note
| b  bend note
1.                             Guitar 1 (PADGE)
D|-----------------------------------------------------------------|
A|-----------------------------------------------------------------|
F|-----------------------------------------------------------------|
C|-2 h 5 h 9 p 2 h 5 h 10 p 2 h 5 h 9 p 2 h 5 h 10 p 2 h 5 h 10/12-| x3
G|-----------------------------------------------------------------|
C|-----------------------------------------------------------------|
2.                             Guitar 2 (MATT)
D|-0--------------------0----------------------------------|
A|-5--------------------5----------------------------------|
F|-4--------------------4--------------------5-4-2---2-----|
C|-2--------------------2--------------------------5---5-4-|
G|-2--------------------2----0-0-0-0-0-0-0-0---------------|
C|-2--------------------2----0-0-0-0-0-0-0-0---------------|
                             x x x x x x x x

3.                             Guitar 1 (PADGE)
D|-----------------------------------------------|
A|-----------------------------------------------|
F|-----------------------------------------------|
C|-2 h 5 h 9 p 2 h 5 h 10 p 2 h 5--7-5-4---4-----|
G|---------------------------------------7---7-5-|
C|-----------------------------------------------|


                                   VERSE

5.                              Both Guitars
D|--------------------------------------|
A|--------------------------------------|
F|-5-------5-------4-4------------------|
C|-5-5-5-5-5--5-5--4-4--2---2---2---2---|
G|-3-3-3-3-3--5-5--2-2--2-2-2-2-2-2-2-2-|
C|------------5-5-------2-2-2-2-2-2-2-2-|
     x x x                x   x   x   x
6                             Guitar 1 (PADGE)
D|-----------------------------------------------------------------|
A|-----------------------------------------------------------------|
F|-----------------------------------------------------------------|
C|-7-5-4---4-------5--5-5-5-5--7-7-4-4--2---2---2----7-5-4---4-----|
G|-------7---7-5------------------------2-2-2-2-2-2--------7---7-5-|
C|--------------------------------------2-2-2-2-2-2----------------|
                                          x   x   x
7                             Guitar 2 (MATT)
D|-----------------------------------------------------------------|
A|-----------------------------------------------------------------|
F|-5-4-2---2-------4--4-4-4-4--5-5-2-2---------------5-4-2---2-----|
C|-------5---5-4------------------------2---2---2----------5---5-4-|
G|--------------------------------------2-2-2-2-2-2----------------|
C|--------------------------------------2-2-2-2-2-2----------------|
                                          x   x   x
                                 REAPEAT 5-7 excluding 1/2 of 6 and 7
                                 REAPEAT #1 once

8.                              Guitar 1 (PADGE)
D|------------------------------------------------|
A|------------------------------------------------|
F|------------------------------------------------|
C|-2 h 5 h 9 p 2 h 5 h 10 p 2 h 5---7-5-4---4-----|
G|----------------------------------------7---7-5-|
C|------------------------------------------------|
9.                              Guitar 2 (MATT)
D|----------------------------------------------|
A|----------------------------------------------|
F|--------------------------------5-4-2---2-----|
C|-2------------------------------------5---5-4-|
G|-2--------------------------------------------|
C|-2--------------------------------------------|
                              REPEAT VERSE
10.                              CHORUS    Guitar 1 (PADGE)
D|--------------------------------0------------------------------------|
A|--------------------------------5------------------------------------|
F|-----------5---------5-5-4-4----4------------5-5-4-4-----------------|
C|------2----5-5--5----5-5-4-4--2------2/5\0-0-5-5-4-4-2---2---2---2---|
G|-0-0--2-2--3-3--5-5--3-3-2-2--2---2----------3-3-2-2-2-2-2-2-2-2-2-2-|
C|-0-0--2-2-------5-5-----------2---2------------------2-2-2-2-2-2-2-2-|
   x x    x    x    x               x                    x   x   x   x
11.                              Guitar 2 (MATT)
D|--------------------------------0------------------------------------|
A|--------------------------------5------------------------------------|
F|-----------5---------5-5-4-4----4---5-------5-5-4-4------------------|
C|------2-x--5-5--5----5-5-4-4--2-----5-5-5---5-5-4-4--2---2---2---2---|
G|-0-0--2-2--3-3--5-5--3-3-2-2--2---2-3-3-5-5-3-3-2-2--2-2-2-2-2-2-2-2-|
C|-0-0--2-2-------5-5-----------2---2-----5-5----------2-2-2-2-2-2-2-2-|
   x x    x    x    x               x       x            x   x   x   x
                              REAPEAT VERSE AND CHORUS

12.                              Guitar 1 (PADGE) "reapeat twice"
D|------------------------------------------------------------------|
A|------------------------------------------------------------------|
F|------------------------------------------------------------------|
C|---0-4-0-5p4-0-----5-0-4h5-0-0--0-5-0-4-0-5-0-7-0-5-0-4h5-0-------|
G|---------------3-3------------------------------------------------|
C|-2----------------------------------------------------------------|
13.                              Guitar 2 (MATT)
D|----------------------------------------|
A|----------------------------------------|
F|------5-------------------5-------------|
C|-2----5-5--5----0----2----5-5--5----0---|
G|-2-2--3-3--5-5--0-0--2-2--3-3--5-5--0-0-|
C|-2-2-------5-5--0-0--2-2-------5-5--0-0-|
     x    x    x    x    x    x    x    x
14.     Guitar 1 (PADGE)          15.          Guitar 2 (MATT)
D|----------------------------    ----------------------------|
A|----------------------------    ----------------------------|
F|----------------------------    --------------5-4-2---2-----|
C|-2---2---2----7-5-4---4-----    -2---2---2----------5---5-4-|
G|-2-2-2-2-2-2--------7---7-5-    -2-2-2-2-2-2----------------|
C|-2-2-2-2-2-2----------------    -2-2-2-2-2-2----------------|
     x   x   x                       x   x   x
                               SOLO
16.           Guitar 1 (PADGE)         17.   Guitar 2 (MATT)
D|---------------------------------    -----------------------|
A|-7h8h17p7h8h15p7h8h17p7h8h19p7h8-    -----------------------|
F|---------------------------------    -5---------5-----5---5-|
C|---------------------------------    -5--5-5-5--5--5--5---5-|
G|---------------------------------    -3--3-3-3--3--3--3---3-|
C|---------------------------------    -----------------------|
                                           x x x     x
18.          Guitar 1 (PADGE)                   19.  Guitar 2 (MATT)
D|--------------------------------------------   ---------------------|
A|-10b(12)-8-10p8-7-8p7-5-7p5-3-5p3-0-3p0--5b-   ---------------------|
F|--------------------------------------------   -------------5-4-----|
C|--------------------------------------------   -2---------2-----4-5-|
G|--------------------------------------------   -2--2-2-2--2---------|
C|--------------------------------------------   -2--2-2-2--2---------|
                                                     x x x

21.      Guitar 1 (PADGE)         22.          Guitar 2 (MATT)
D|-15p12-----------------        -----------------------------|
A|-------12-----17p12----        -----------------------------|
F|----------12--------12-        -5---------5-----5-5-----5-5-|
C|-----------------------  (x3)  -5--5-5-5--5--5--4-4--4--5-5-|
G|-----------------------        -3--3-3-3--3--3--3-3--3--3-3-|
C|-----------------------        -----------------------------|
23.             Guitar 1 (PADGE)     x x x     x       x
D|-15p12----12-------------------------------------------------|
A|-------15----15p12-15p12----12-------------------------------|
F|-------------------------14----14p12-14p12----12-------------|
C|-------------------------------------------14----14p12--12+--|
G|-------------------------------------------------------------|
C|-------------------------------------------------------------|
24.      Guitar 2 (MATT)
D|------------------------|
A|------------------------|
F|------------------------|
C|-0-2-0-2-0----0-4-0-4-0-|
G|-0----------0-0---------|
C|-0----------0-0---------|
25.           x   Guitar 1 (PADGE)                Guitar 2 repeat 17.
D|----17-15-14-15-14---------14-15-17-17b(19)-|
A|-12----------------17-16-17-----------------|
F|--------------------------------------------|
C|--------------------------------------------|
G|--------------------------------------------|
C|--------------------------------------------|
26.               Guitar 1. Padge
D|-19-15h19p15-------15----------15-19-15h19p15----15------|
A|-------------17-------17----17----------------17----17---|b
F|----------------16-------16------------------------------|
C|---------------------------------------------------------|
G|---------------------------------------------------------|
C|---------------------------------------------------------|
                                 Guitar 2 repeat 19.

27.                   Guitar 1 Padge
D|-12b -14b -15b -17b --17b(19)-22p17-17b(19)-22p17-17b(19)-22p17-22b(24)-|
A|------------------------------------------------------------------------|
F|------------------------------------------------------------------------|
C|------------------------------------------------------------------------|
G|------------------------------------------------------------------------|
C|------------------------------------------------------------------------|
                           Guitar 2 repeat 17. and 24.

28.      Both Guitars
D|-----------------------------------0-0-0-0-|
A|-------------------------------------------|
F|-------------------------------------------|
C|-------------------------------------------|       x2
G|-2-2-2-2-2-2-2---2-2-2-2-2-2-2-2-2---------|
C|-2-2-2-2-2-2-2---2-2-2-2-2-2-2-2-2---------|
   x x x x x x x   x x x x x x x x x
29.                   Guitar 1 (PADGE)
D|-------------------------------------------------------------------|
A|-------------------------------------------------------------------|
F|-------------------------------------------------------------------|
C|-----2----2---2----3----3---3----4----4---4\----3--7-5-----7-5-----|  x2
G|-22222222222222-3333333333333-4444444444444\-3333------8-7-----8-7-|
C|-22222222222222-3333333333333-4444444444444\-3333------------------|
   xxxx xxxx xxx  xxx xxxx xxx  xxx xxxx xxx  xxx   x x x x x x x x
30.                         Guitar 2 (MATT)
D|-------------------------------------------------------------------|
A|-------------------------------------------------------------------|
F|-------------------------------------------------------------------|
C|-----2----2---2----3----3---3----4----4---4\----3--3-2-0---3-2-0---|  x2
G|-22222222222222-3333333333333-4444444444444\-3333--------3-------3-|
C|-22222222222222-3333333333333-4444444444444\-3333------------------|
   xxxx xxxx xxx  xxx xxxx xxx  xxx xxxx xxx  xxx   x x x x x x x x
                  Guitar 1 repeat riff 1
            Guitar 2                        Guitar 2
D|-0----0-------------------------    ---------------------------|
A|-0----0-------------------------    ---------------------------|
F|-0----0-------------------------    ---------5-5-5-5-----------|
C|-2----2---12\0------------------    -2-2-2-2-5-5-5-5-5-5-5-5-5-|
G|-2----2---12\0--0-0-0-0-0-0-0-0-    -2-2-2-2-3-3-3-3-5-5-5-5-5-|
C|-2----2---12\0--0-0-0-0-0-0-0-0-    -2-2-2-2---------5-5-5-5-5-|
                  x x x x x x x x
                            REPEAT CHORUS
    Both Guitars       Guitar 1          Guitar 2
D|-----------------  ---------------  ---------------|
A|-----------------  ---------------  ---------------|
F|-----5-----------  -------------4-  -----5-------4-|
C|-2---5-5-5---0---  -2---2/5\0-0-4-  -2---5-5-5---4-|
G|-2-2-3-3-5-5-0-0-  -2-2---------2-  -2-2-3-3-5-5-2-|
C|-2-2-----5-5-0-0-  -2-2-----------  -2-2-----5-5---|
     x   x   x   x      x                x   x   x

                Guitar 1
D|------------------------------------------------------------|
A|------------------------------------------------------------|
F|------------------------------------------------------------|
C|---0-4-0-5p4-0-----5-0-4h5-0-0--0-5-0-4-0-5-0-7-0-5-0-4h5-0-|
G|---------------3-3------------------------------------------|
C|-2----------------------------------------------------------|
                Guitar 1
D|------------------------------------------------------------|
A|------------------------------------------------------------|
F|------------------------------------------------------------|
C|---0-4-0-5p4-0-----5-0-4h5-0-0--0-5-0-4-0-5-0-7-5-4-5-7-5-4-|
G|---------------3-3------------------------------------------|
C|-2----------------------------------------------------------|
                                                x x x x x x x
                Guitar 2
D|--------------------------------------------|
A|--------------------------------------------|
F|-----5---------------5----------------------|
C|-2---5-5-5---0---2---5-5-5----0-0-0-0-0-0-0-|
G|-2-2-3-3-5-5-0-0-2-2-3-3-5-5----------------|
C|-2-2-----5-5-0-0-2-2-----5-5----------------|
     x   x   x   x   x   x   x

                   Guitar 1
D|------------------------------------------------------------|
A|------------------------------------------------------------|
F|------------------------------------------------------------|
C|---0-4-0-5p4-0-----5-0-4h5-0-0--0-5-0-4-0-5-0-7-0-5-0-4h5-0-| x2
G|---------------3-3------------------------------------------|
C|-2----------------------------------------------------------|
                   Guitar 2
D|------------------------------------------------------------|
A|------------------------------------------------------------|
F|---0-2-0-4p2-------4---2h4----------------------------------|
C|-2-----------0-------0-----0-0--0-4-0-2-0-4-0-5-0-4-0-2h4-0-| x2
G|---------------3-3------------------------------------------|
C|------------------------------------------------------------|
    Both Guitars         Guitar 1            Guitar 2
D|-----------------   -------------------   -------------------|
A|-----------------   -------------------   -------------------|
F|-----------------   -------------------   -5-4-2---2---------|
C|-2---2---2---2---   -7-5-4---4---------   -------5---5-4-4/5-|
G|-2-2-2-2-2-2-2-2-   -------7---7-5-5/7-   -------------------|
C|-2-2-2-2-2-2-2-2-   -------------------   -------------------|
     x   x   x   x

                            THE END

            
            
Suggest correction
Creating personal tab
Creating personal tab
You can edit any tab online and save it as your Personal.

You can edit, replace or remove any tab part or add personal notes – all changes will be seen only by you.

Personal tabs can be accessed anytime from any device, even offline.
Learn more »
comments
print report bad tab
4 comments total. Showing first comments.
-2 reply
xKnifekillerx 393 Nov 06, 2009 02:23 PM

ugh, what the ****?
Dude, the intro is awefull sorry mate.

two star.

+2 reply
cocoducks 10 Nov 28, 2010 05:56 AM

5* =D great job

+1 reply
mettguithero 10 Mar 09, 2011 07:47 AM

idk what these morons are whining about man this tab's pretty legit. i've been playing bullet music for years and this is the tab i swear by. keep up the good work. i gave this a 5 star because if it isn't 100% then it's pretty damn close.

guest
You may want to rate the tab now too:
select rating
Wanna post a correction for this tab? Suggest correction