Oops, an error
Loading. Please wait.
We have an official Waking The Demon tab made by UG professional guitarists. Check out the tab »
×
100,574 views 39 this week
10 commentsread comments
1 2 3 4 5
x 17
add to favorites
×
Save as Personal and add changes to this tab that will be seen only by you. Learn more ›
×
You can save this tab as Personal to edit and correct it or add notes. All changes will be seen only by you. Learn more »
launch autoscroll
font size
0
reset
how to read this tab
guitar tuner
backing track
0:00
0:00
edit
Autoscroll
slow
fast
+/-
esc
set tempo
stop
Author
Difficulty
intermediate
-------------------------------------------------------------------------------
                             WAKING THE DEMON(SOLO) - Bullet For My Valentine
-------------------------------------------------------------------------------
Tabbed by:venomouskiss320
Email:venomouskiss320@yahoo.com

Tuning:drop c (DAFCGC)


e|------------------17b-------17-21-17-16-17---------------------------------|
B|-----17b--17--------------------------------17-----------------------------|
G|--------------16--------------------------------16--14---------------------|
D|---------------------------------------------------------------------------|
A|---------------------------------------------------------------------------|
E|---------------------------------------------------------------------------|

e|---------------------------------------------------------------------------|
B|------------9-10-------10-12-9-10-12-14-10-12-14---15-12-14-15-17-15-17----|
G|----13-9-11------11-13-----------------------------------------------------|
D|---------------------------------------------------------------------------|
A|---------------------------------------------------------------------------|
E|---------------------------------------------------------------------------|

e|----14-19b--19b--17-19-17-16-17-16-14-16-----------------------------------|
B|------------------------------------------14-------------------------------|
G|---------------------------------------------------------------------------|
D|---------------------------------------------------------------------------|
A|---------------------------------------------------------------------------|
E|---------------------------------------------------------------------------|
(this part is tapped)
     (8x)     (8x)        (stop tapping at this section)
e|---17-14---16-13-----------------------------------------------------------|
B|---------------------------------------------------------------------------|
G|----------------------19-18-16-18-16-14-16-14-13-14-13-11-13-11-9----------|
D|---------------------------------------------------------------------------|
A|---------------------------------------------------------------------------|
E|---------------------------------------------------------------------------|

this part is a confusing whammy bar thing,couldnt figure it out,thanx to no whammy bar

(Dual Guitar Part)

guitar 1
e|---12p9----9--12p9-12p9----9--12p9-12p9----9--10p7-----10p7-10p7---10p7-9p7----7----|
B|--------10--------------10--------------10----------9------------9-----------9------|
G|------------------------------------------------------------------------------------|
D|------------------------------------------------------------------------------------|
A|------------------------------------------------------------------------------------|
E|------------------------------------------------------------------------------------|

e|---12p9----9--12p9-12p9----9--12p9-12p9----9--10p7-----10p7-10p7---10p7-10p7---7----|
B|--------10--------------10--------------10----------9------------9-----------9------|
G|------------------------------------------------------------------------------------|
D|------------------------------------------------------------------------------------|
A|------------------------------------------------------------------------------------|
E|------------------------------------------------------------------------------------|

e|---12p9-----9-12p9-12p9----9-12p9-12p9----9---12b--------------------------|
B|---------10-------------10-------------10----------------------------------|
G|---------------------------------------------------------------------------|
D|---------------------------------------------------------------------------|
A|---------------------------------------------------------------------------|
E|---------------------------------------------------------------------------|

guitar 2
e|---17p12----12-17p12-17p12----12-17p12-17p12-----12------------------------|
B|---------14----------------14----------------14----------------------------|
G|---------------------------------------------------------------------------|
D|---------------------------------------------------------------------------|
A|---------------------------------------------------------------------------|
E|---------------------------------------------------------------------------|

e|---14p10----10-14p10-14p10----10-14p10-14p10----10-------------------------|
B|---------12----------------12----------------12----------------------------|
G|---------------------------------------------------------------------------|
D|---------------------------------------------------------------------------|
A|---------------------------------------------------------------------------|
E|---------------------------------------------------------------------------|

e|---17p12----12-17p12-17p12----12-17p12-17p12-----12------------------------|
B|---------14----------------14----------------14----------------------------|
G|---------------------------------------------------------------------------|
D|---------------------------------------------------------------------------|
A|---------------------------------------------------------------------------|
E|---------------------------------------------------------------------------|

e|---14p10----10-14p10-14p10----10-14p10-14p10----10-------------------------|
B|---------12----------------12----------------14----------------------------|
G|---------------------------------------------------------------------------|
D|---------------------------------------------------------------------------|
A|---------------------------------------------------------------------------|
E|---------------------------------------------------------------------------|


e|---14p10----10-14p10-14p10----10-14p10-14p10----10-------------------------|
B|---------12----------------12----------------12----------------------------|
G|---------------------------------------------------------------------------|
D|---------------------------------------------------------------------------|
A|---------------------------------------------------------------------------|
E|---------------------------------------------------------------------------|

e|---17p12----12-17p12-17p12----12-17p12-17p12-----12---17b-----------------------|
B|---------14----------------14----------------14---------------------------------|
G|--------------------------------------------------------------------------------|
D|--------------------------------------------------------------------------------|
A|--------------------------------------------------------------------------------|
E|--------------------------------------------------------------------------------|


************************************

| b  Bend
| p  Pull-off

************************************

            
            
Suggest correction
Creating personal tab
Creating personal tab
You can edit any tab online and save it as your Personal.

You can edit, replace or remove any tab part or add personal notes – all changes will be seen only by you.

Personal tabs can be accessed anytime from any device, even offline.
Learn more »
comments
print report bad tab
10 comments total. Showing first comments.
0 reply
atreyunderworld 31 May 03, 2008 03:13 PM

sweet, so seriously tell me how long this took to tab out perfectly?

0 reply
Feilong29 137 Jun 02, 2008 10:52 PM

the whammy bar... catch the natural harmoninc of the 9th fret on the 3rd string :D

0 reply
ibanez-bitch 10 Jun 20, 2008 03:44 AM

^^^Also the Natural harmonic on the 7th fret on the e string....

As for not having a Whammy Bar like myself, just bend the octve note (19th on the e string)

guest
You may want to rate the tab now too:
select rating
Wanna post a correction for this tab? Suggest correction