Oops, an error
Loading. Please wait.

Waking The Demon Bass Tab

version 2
version 2
59,098 views 63 this week
5 commentsread comments
1 2 3 4 5
x 25
add to favorites
launch autoscroll
font size
0
reset
guitar tuner
Autoscroll
slow
fast
+/-
esc
set tempo
stop
Help us to improve Ultimate-Guitar.com Take our survey!
×
Author
Difficulty
Tuning
intermediate
C F A# D# G C
Bullet for my Valentine
Waking the Demon

Tabbed by: SAS bassist
Tuning: Drop C

[Intro]
F|-------------------------------------------------------------------|
C|-------------------------------------------------------------------|
G|-------------------------------------------------------------------|
C|-4-------4------5-7---4-------4-----4--------4~~~~~~4~~~~~~----16\-|

F|-----------------------|--------------------|------------------------------|
C|-----------------------|--------------------|------------------------------|
G|-----------------------|--------------------|----------------------4-7-4-5-|
C|-4-4-4-4-4-4-4-5-4-7-4-|-4-4-4-4-4-4-4-5~7~-|-4-4-4-4-4-4-4-7-4-5-4--------|

**Last time play C| 4-4-4-4-4-4-4-4-4-4-4-12\\\\\\**

Fill
F|---------------------|
C|---------------------|
G|---------------------|
C|-0~~~~~------0----2--|

[Verse]
F|-----------------------|--------------------|------------------------------|
C|-----------------------|--------------------|------------------------------|
G|-----------------------|--------------------|----------------------4-7-4-5-|
C|-4-4-4-4-4-4-4-5-4-7-4-|-4-4-4-4-4-4-4-5~7~-|-4-4-4-4-4-4-4-7-4-5-4--------|

[Chorus]
F|-----------------------------|----------------|------------------|
C|-----------------------------|----------------|-----------7---6--|
G|-5-4------5-4----------------|-5-4------------|-5-4--------------|
C|-----7-4------7-4---4-4-4-4--|----7-4---0---2-|-----7-4----------|

F|---------------------------------------------------------------------------|
C|---------------------------------------------------------------------------|
G|-5-5-5-5-5-5-5-5-5-5-5-5-5-5-5-5-5-5-4-4-4-4-4-4-4-4-4-4-4-0-0-0-0-7-7-7-7-|
C|---------------------------------------------------------------------------|

F|---------------------------------------------------------------------------|
C|---------------------------------------------------------------------------|
G|-9-9-9-9-9-9-9-9-9-9-9-9-9-9-9-9-9-9-7-7-7-7-7-7-7-7-7-7-7-0-0-0-0-4-4-4-4-|
C|---------------------------------------------------------------------------|

F|---------------------|
C|---------------------|
G|---------------------|
C|-444444444444444\\\0-|

[Verse]
[Chorus]

[Interlude]
F|---------------------------------------------------|
C|---------------------------------------------------|
G|---------------------------------------------------|
C|-0--0--0----0-2--2--2----2-4--4--4----4-4--4--4--2-|

[Bridge]
F|-----------------------------------------|
C|-----------------------------------------|
G|-----------------------------------------|
C|-4----4444-4----4444-4----4444-4----4444-|

[Pre-Solo]                                      Last Time
F|-----------------------------------|---------------------|
C|-----------------------------------|---------------------|
G|-----------------------------------|---------------------|
C|-5-4-4-4-4-7-4-4-4-4-4-4-5-4-4-4-4-|-5-4-4-4-4-5-4-4-4-4-|

[Solo] = Verse and
F|---------------------------------------------------------------------------|
C|---------------------------------------------------------------------------|
G|-5-5-5-5-5-5-5-5-5-5-5-5-5-5-5-5-5-5-4-4-4-4-4-4-4-4-4-4-4-0-0-0-0-7-7-7-7-|
C|---------------------------------------------------------------------------|

F|---------------------------------------------------------------------------|
C|---------------------------------------------------------------------------|
G|-9-9-9-9-9-9-9-9-9-9-9-9-9-9-9-9-9-9-4-4-4-4-4-4-4-4-4-4-4-0-0-0-0-7-7-7-7-|
C|---------------------------------------------------------------------------|

F|--------------------------------------------|
C|--------------------------------------------|
G|-9-9-9-9-9-9-9-9-9-9-9-9-9-9-9-9-9-9--------|
C|--------------------------------------16\\\-|

[Interlude]
1st Part of Intro
2nd Half Verse

[Outro]
F|-------------------|
C|-------------------|
G|-------------------|
C|-0------------4444-|

That's pretty much it guys, if you have any queries or comments just give us a
bell at withoos_man@hotmail.com
DONT FORGET TO RATE!



************************************

| \  Slide down
| ~  Vibrato

************************************
Suggest correction
comments
print report bad tab
5 comments total. Showing first comments. show 1 bad comment
+2 reply
Asilaydyingeek 73 Aug 01, 2008 11:33 PM

actually the chorus is right...dont listen to that dude

+3 reply
bassplayer18A7X 111 Oct 16, 2008 07:18 PM

the only thing that could have made this better is if you put the times in also, other than that, very good tab, 5 stars.

guest
You may want to rate the tab now too:
select rating
Wanna post a correction for this tab? Suggest correction