Oops, an error
Loading. Please wait.
We have an official You Want A Battle Heres A War tab made by UG professional guitarists. Check out the tab »
×
1,283 views 3 this week
2 commentsread comments
1 2 3 4 5
2 more votes to show rating
add to favorites
×
Save as Personal and add changes to this tab that will be seen only by you. Learn more ›
×
You can save this tab as Personal to edit and correct it or add notes. All changes will be seen only by you. Learn more »
launch autoscroll
font size
0
reset
guitar tuner
edit
Autoscroll
slow
fast
+/-
esc
set tempo
stop
-------------------------------------------------------------------------------
            You Want a Battle? (Here's a War) - Bullet For My Valentine
-------------------------------------------------------------------------------
Tabbed by: Andu Needle
E-mail: sulfur_in_my_lungs@yahoo.com

Intro:

F|-----------------------------------------------------------------|
C|-----------------------------------------------------------------|
G|------------------------32023202---------------------------------|
D|-0000~-0000--0000~-0000------------------------------------------|(x7)

F|-----------------------------------------------------------------|
C|-----------------------------------------------------------------|
G|-------------------0-2-3-3-2-0-----------------------------------|
D|-0000~-0000--0000~-----------------------------------------------|

Verse:

The notes between brackets are my personal option for filling the sound.
They are not played on the song! It follows the guitar part!

F|-----------------------------------------------------------------|
C|-----------------------------------------------------------------|
G|------3---------0-2-3-0-2-3--------------------------------------|
D|-00-----00---00--------------------------------------------------|(x2)

F|-----------------------------------------------------------------|
C|-----------------------------------------------------------------|
G|----(7~)-------(5~)--------(7~)-----0-2-3-0-2-3------------------|
D|-00------00000------000000------000------------------------------|(x2)

Pre chorus:

F|-----------------------------------------------------------------|
C|-----------------------------------------------------------------|
G|-00000000-22222222-----------------------------------------------|
D|-----------------------------------------------------------------|

Chorus:

F|-----------------------------------------------------------------|
C|-----------------------------------------------------------------|
G|----------22222222----------22222202-33333333-55555555-----------|
D|-00000000----------00000000--------------------------------------|(x2)

Intro again:

F|-----------------------------------------------------------------|
C|-----------------------------------------------------------------|
G|------------------------32023202---------------------------------|
D|-0000~-0000--0000~-0000------------------------------------------|

F|-----------------------------------------------------------------|
C|-----------------------------------------------------------------|
G|-------------------0-2-3-3-2-0-2~--------------------------------|
D|-0000~-0000--0000~-----------------------------------------------|

Verse 2 is the same as the first one!
Pre chorus 2 is the same as the first one!
Chorus 2 is the same as the first one!

Bridge:

F|-----------------------------------------------------------------|
C|-----------------------------------------------------------------|
G|-----------3~---5~-----------------------------------------------|
D|-0~---0~---------------------------------------------------------|

F|-----------------------------------------------------------------|
C|-----------------------------------------------------------------|
G|---------------------3-3-3-3-3-3-3-3-5-5-5-5-5-5-5-5-------------|
D|-0-0-0-0-0-0-0-0(x2)---------------------------------------------|(x3)

F|-----------------------------------------------------------------|
C|-----------------------------------------------------------------|
G|---------------------3-3-3-3-3-3-3-3-5-5-5-5-5-5-5-5-------------|
D|-0-0-0-0-0-0-0-0(x2)---------------------------------0~----------|

That little bridge before the last chorus:

F|-----------------------------------------------------------------|
C|-----------------------------------------------------------------|
G|-023~--5~--------------------------------------------------------|
D|-----------------------------------------------------------------|

Last chorus:

F|-----------------------------------------------------------------|
C|-----------------------------------------------------------------|
G|----------22222222----------22222202-33333333-55555555-----------|
D|-00000000----------00000000--------------------------------------|

F|-----------------------------------------------------------------|
C|-----------------------------------------------------------------|
G|----------22222222----------2-2-2-2-0-2-33333333-55555-----------|
D|-00000000----------00000000--------------------------------------|

Outro:

F|-----------------------------------------------------------------|
C|-----------------------------------------------------------------|
G|------------------------32023202---------------------------------|
D|-0000~-0000--0000~-0000------------------------------------------|(x2)

F|-----------------------------------------------------------------|
C|-----------------------------------------------------------------|
G|-----------------------32023202----------------------------------|
D|-0000~-000--0000~-0000-------------------------------------------|

F|-----------------------------------------------------------------|
C|-----------------------------------------------------------------|
G|------------------------32023202---------------------------------|
D|-0000~-0000--0000~-0000------------------------------------------|

            
            
Suggest correction
Creating personal tab
Creating personal tab
You can edit any tab online and save it as your Personal.

You can edit, replace or remove any tab part or add personal notes – all changes will be seen only by you.

Personal tabs can be accessed anytime from any device, even offline.
Learn more »
Give kudos to tab author, rate the tab!
1 2 3 4 5
comments
print report bad tab
2 comments total.
+1 reply
jonathanvlietvan 33 Aug 30, 2016 10:51 AM

great tab! I've been looking for a good one and yours is amazing! Thanks for making it and putting it online!

guest
You may want to rate the tab now too:
select rating
Wanna post a correction for this tab? Suggest correction