Oops, an error
Loading. Please wait.
We have an official Your Betrayal tab made by UG professional guitarists. Check out the tab »
×
33,108 views 9 this week
4 commentsread comments
1 2 3 4 5
x 4
add to favorites
×
Save as Personal and add changes to this tab that will be seen only by you. Learn more ›
×
You can save this tab as Personal to edit and correct it or add notes. All changes will be seen only by you. Learn more »
launch autoscroll
font size
0
reset
guitar tuner
backing track
0:00
0:00
edit
Autoscroll
slow
fast
+/-
esc
set tempo
stop
Band: Bullet for My Valentine
Song: Your Betrayal
Album: Fever
Track: 01
Year: 2010

Drop C Tuning

Note: This is how I play it. Jason probably plays it slightly differently.

Intro
F|-----------------------------------|-------------------------------------|
C|-----------------------------------|-------------------------------------|
G|-----------------------------------|-------------------------------------|
C|-00000000-0~--0000-0~--0000-0~--0~-|-00000000-0~--0000-0~--0000-12~--10~-|

F|-----------------------------------|-------------------------------------|
C|-----------------------------------|-------------------------------------|
G|-11111111-1~--1111-1~--1111-1~--1~-||-33333333-3~--3333--------------5\\-|
C|-----------------------------------|-------------------------------------|

F|-----------------------------------|-------------------------------------|
C|-----------------------------------|-------------------------------------|
G|-----------------------------------|-------------------------------------|
C|-00000000-0~--0000-0~--0000-0~--0~-|-00000000-0~--0000-0~--0000-12~--10~-|

F|-----------------------------------|-------------------------------------|
C|-----------------------------------|---------------------7--5--3--2------|
G|-11111111-1~--1111-1~--1111-1~--1~-||-33333333-3~--3333------------------|
C|-----------------------------------|-------------------------------------|

Verse
F|-----------------------------------|
C|-----------------------------------|
G|-----------------------------------| x4
C|-0~--0~--0-0--------0~--0~--0-0----|

Pre Chorus
F|------------|
C|------------|
G|------------|
C|-0~~~~------|

Chorus
F|-----------------------------------|-------------------------------------|
C|-----------------------------------|-------------------------------------|
G|-----------------------------------|-------------------------------------|
C|-00000000-0~--0000-0~--0000-0~--0~-|-00000000-0~--0000-0~--0000-12~--10~-|

F|-----------------------------------|-------------------------------------|
C|-----------------------------------|-------------------------------------|
G|-11111111-1~--1111-1~--1111-1~--1~-||-33333333-3~--3333--------------5\\-|
C|-----------------------------------|-------------------------------------|

F|-----------------------------------|-------------------------------------|
G|-----------------------------------|-------------------------------------|
C|-----------------------------------|-------------------------------------|
G|-00000000-0~--0000-0~--0000-0~--0~-|-00000000-0~--0000-0~--0000-12~--10~-|

F|-----------------------------------|-------------------------------------|
C|-----------------------------------|---------------------7--5--3--2------|
G|-11111111-1~--1111-1~--1111-1~--1~-||-33333333-3~--3333------------------|
C|-----------------------------------|-------------------------------------|

Verse
F|-----------------------------------|
C|-----------------------------------|
G|-----------------------------------| x4
C|-0~--0~--0-0--------0~--0~--0-0----|

Pre Chorus
F|------------|
C|------------|
G|------------|
C|-0~~~~------|

Chorus
F|-----------------------------------|-------------------------------------|
C|-----------------------------------|-------------------------------------|
G|-----------------------------------|-------------------------------------|
C|-00000000-0~--0000-0~--0000-0~--0~-|-00000000-0~--0000-0~--0000-12~--10~-|

F|-----------------------------------|-------------------------------------|
C|-----------------------------------|-------------------------------------|
G|-11111111-1~--1111-1~--1111-1~--1~-||-33333333-3~--3333--------------5\\-|
C|-----------------------------------|-------------------------------------|

F|-----------------------------------|-------------------------------------|
C|-----------------------------------|-------------------------------------|
G|-----------------------------------|-------------------------------------|
C|-00000000-0~--0000-0~--0000-0~--0~-|-00000000-0~--0000-0~--0000-12~--10~-|

F|-----------------------------------|-------------------------------------|
C|-----------------------------------|---------------------7--5--3--2------|
G|-11111111-1~--1111-1~--1111-1~--1~-||-33333333-3~--3333------------------|
C|-----------------------------------|-------------------------------------|

Bridge
F|------------|------------|------------|
C|------------|------------|------------|
G|------------|--------5\\-|------------|
C|-0~~~~------|-0~~~~------|-000000000--|

F|----------------------------|----------------------------------|
C|----------------------------|----------------------------------|
G|----------------------------|----------------------------------|
C|-0-0-0~--0-0-0---0~-0-0-0-0-|-0-0-0~--0-0-0---0-0-0-0~--0~--0~-|
 |                                                               |x2
F|----------------------------|----------------------------------|
C|----------------------------|----------------------------------|
G|----------------------------|----------------------------------|
C|-0-0-0~--0-0-0---0~-0-0-0-0-|-0-0-0--0-0-0--3-1-0-1-8-7-5-1----|

Pre Chorus
F|------------|
C|------------|
G|------------|
C|-0~~~~------|

Chorus
F|-----------------------------------|-------------------------------------|
C|-----------------------------------|-------------------------------------|
G|-----------------------------------|-------------------------------------|
C|-00000000-0~--0000-0~--0000-0~--0~-|-00000000-0~--0000-0~--0000-12~--10~-|

F|-----------------------------------|-------------------------------------|
C|-----------------------------------|-------------------------------------|
G|-11111111-1~--1111-1~--1111-1~--1~-||-33333333-3~--3333--------------5\\-|
C|-----------------------------------|-------------------------------------|

F|-----------------------------------|-------------------------------------|
C|-----------------------------------|-------------------------------------|
G|-----------------------------------|-------------------------------------|
C|-00000000-0~--0000-0~--0000-0~--0~-|-00000000-0~--0000-0~--0000-12~--10~-|

F|-----------------------------------|-------------------------------------|
C|-----------------------------------|---------------------7--5--3--2------|
G|-11111111-1~--1111-1~--1111-1~--1~-||-33333333-3~--3333------------------|
C|-----------------------------------|-------------------------------------|

Outro
F|-------------------------|
C|-------------------------|
G|-------------------------|
C|-000000000--00000--00000-|

            
            
Suggest correction
Creating personal tab
Creating personal tab
You can edit any tab online and save it as your Personal.

You can edit, replace or remove any tab part or add personal notes – all changes will be seen only by you.

Personal tabs can be accessed anytime from any device, even offline.
Learn more »
comments
print report bad tab
4 comments total. Showing first comments.
0 reply
alecschrader45 10 Mar 19, 2010 03:00 PM

you put the artist and song twice(technically you put artist and band but there the same thing)good tab though

0 reply
Vampire 255 407 Mar 19, 2010 04:12 PM

What? :S I don't get what you mean.

0 reply
Shuckins 10 Mar 21, 2010 12:20 PM

very nice, you did miss the slide in the second verse and the 6 note fill in both verses but other than that great job

F|----------------------------------------------------------
C|----------------------------------------------------------
G|----------------------------------------------------------
C|---0//12--15//0-------------------------------------------

F|----------------------------------------------------------
C|---7-5---5------------------------------------------------
G|-------7---8-5--------------------------------------------
C|----------------------------------------------------------

guest
You may want to rate the tab now too:
select rating
Wanna post a correction for this tab? Suggest correction