Oops, an error
Loading. Please wait.

Your Betrayal Tab

version 1
version 1

Solo

  • It is live version , it has diffrent riffs.

Whole song

58 views 1 this week
no commentswrite comment
1 2 3 4 5
x 3
add to favorites
launch autoscroll
font size
0
reset
how to read this tab
guitar tuner
Autoscroll
slow
fast
+/-
esc
set tempo
stop
Help us to improve Ultimate-Guitar.com Take our survey!
×
Author
Difficulty
Tuning
novice
C F A# D# G C
About this tab version
It is live version , it has diffrent riffs. Was this info helpful? Yes No
I searched online for this live solo cause it sounds awesome but i couldn't find it so here it is :
Tabbed by ear from this live show : https://youtu.be/h0TJfyjNddo


[Solo]

D|-------------------------------------------------|
A|-10----10----10----10----11----11----11----11----|
F|----10----10----10----10----10----10----10----10-|
C|-------------------------------------------------|
G|-------------------------------------------------|
C|-------------------------------------------------|

D|---------------------------------------------|
A|-8----8----8----8----10----10----11-10-------|
F|---10---10---10---10----10----10-------12-10-|
C|---------------------------------------------|
G|---------------------------------------------|
C|---------------------------------------------|

D|-------------------------------------------------|
A|-10----10----10----10----11----11----11----11----|
F|----10----10----10----10----10----10----10----10-|
C|-------------------------------------------------|
G|-------------------------------------------------|
C|-------------------------------------------------|

D|-----------------------------------|
A|-8----8----8----8----10----10----10|
F|---10---10---10---10----10----10---|
C|-----------------------------------|
G|-----------------------------------|
C|-----------------------------------|

D|-------------------------------------------------|
A|-6-6-6-6----8-8-8-8----5-5-5-5------6-6-5-5------|    
F|--7-7-7-7----7-7-7-7----7-7-7-7------7-7-7-7-----|
C|-------------------------------------------------|
G|-------------------------------------------------|
C|-------------------------------------------------|

D|-------------------------------------------------|
A|-6-6-6-6----8-8-8-8----5-5-5-5------6-5-5--6-5---|    
F|--7-7-7-7----7-7-7-7----7-7-7-7--------7------7-5|
C|-------------------------------------------------|
G|-------------------------------------------------|
C|-------------------------------------------------|

D|-------------------------------------------------|
A|-6-6-6-6----8-8-8-8----5-5-5-5------stop---------|    
F|--7-7-7-7----7-7-7-7----7-7-7-7-----stop---------|
C|-------------------------------------------------|
G|-------------------------------------------------|
C|-------------------------------------------------|

D|-------------------------------------------------|
A|-6-6-6-6----8-8-8-8----5-5-5-5------6-5-5--6-5---|    
F|--7-7-7-7----7-7-7-7----7-7-7-7--------7------7-5|
C|-------------------------------------------------|
G|-------------------------------------------------|
C|-------------------------------------------------|
Suggest correction
Give kudos to tab author, rate the tab!
1 2 3 4 5
comments
print report bad tab
guest
You may want to rate the tab now too:
select rating
Wanna post a correction for this tab? Suggest correction