Oops, an error
Loading. Please wait.
We have an official Your Betrayal tab made by UG professional guitarists. Check out the tab »
×
6,158 views 1 this week
3 commentsread comments
1 2 3 4 5
x 4
add to favorites
×
Save as Personal and add changes to this tab that will be seen only by you. Learn more ›
×
You can save this tab as Personal to edit and correct it or add notes. All changes will be seen only by you. Learn more »
launch autoscroll
font size
0
reset
guitar tuner
backing track
0:00
0:00
edit
Autoscroll
slow
fast
+/-
esc
set tempo
stop
Author
Difficulty
this is a tab for bfmv's new song "Your Betrayal" 
put into standard tuning on five string 
in standard tuning. its pretty easy, still a bitch to type up though.

INTRO (Part 1)
G|-------------------------|-------------------------|
D|-------------------------|-------------------------|(Just Keep On Playing This Riff
A|-------------------------|-------------------------| till the 0:50 Second Mark)
E|-------------------------|-------------------------|
B|-111111111-111111-111111-|-111111111-111111-111111-|


INTRO (Part 2)
G|----------------------------|---------------------------|------------------------------|
D|----------------------------|---------------------------|------------------------------|
A|------------------------3-1-|-----------------------3-1-|------------------------------|
E|----------------------------|---------------------------|-444444444-444444-444444------|
B|-111111111-111111-111111----|-111111111-111111-1111-----|------------------------------|

G|-------------------------------|
D|-------------------------------|
A|-111111111-111111-111111-------| (1st Half)
E|-------------------------------|
B|-------------------------------|


G|----------------------------|---------------------------|------------------------------|
D|----------------------------|---------------------------|------------------------------|
A|------------------------3-1-|-----------------------3-1-|------------------------------|
E|----------------------------|---------------------------|-444444444-444444-444444------|
B|-111111111-111111-111111----|-111111111-111111-1111-----|------------------------------|

G|-------------------------------|
D|-----------------------5-3-1-0-|
A|-111111111-111111-1111---------| (2nd Half)
E|-------------------------------|
B|-------------------------------|


VERSE 1
G|---------------------------------|
D|--------------------1------0-----|
A|----------------------3-1----3---| x4
E|---------------------------------|
B|-1-1-1-1----1-1-1-1------------4-|


CHORUS 1
G|---------------------------|---------------------------|-------------------------|
D|---------------------------|---------------------------|-------------------------|
A|-----------------------3-1-|-----------------------3-1-|-------------------------|
E|---------------------------|---------------------------|-444444444-444444-444444-|
B|-111111111-111111-1111-----|-111111111-111111-1111-----|-------------------------|

G|-------------------------------|
D|-------------------------------|
A|-111111111-111111-111111-------| (1st Half)
E|-------------------------------|
B|-------------------------------|

G|---------------------------|---------------------------|-------------------------|
D|---------------------------|---------------------------|-------------------------|
A|-----------------------3-1-|-----------------------3-1-|-------------------------|
E|---------------------------|---------------------------|-444444444-444444-444444-|
B|-111111111-111111-1111-----|-111111111-111111-1111-----|-------------------------|

G|-------------------------------|
D|-----------------------5-3-1-0-|
A|-111111111-111111-1111---------| (2nd Half)
E|-------------------------------|
B|-------------------------------|


VERSE 2
G|---------------------------------|
D|--------------------1------0-----|
A|----------------------3-1----3---| x1
E|---------------------------------|
B|-1-1-1-1-\16/-1-1-1-1----------4-|

G|---------------------------------|
D|--------------------1------0-----|
A|----------------------3-1----3---| x3
E|---------------------------------|
B|-1-1-1-1----1-1-1-1------------4-|


CHORUS 2
G|---------------------------|---------------------------|-------------------------|
D|---------------------------|---------------------------|-------------------------|
A|-----------------------3-1-|-----------------------3-1-|-------------------------|
E|---------------------------|---------------------------|-444444444-444444-444444-|
B|-111111111-111111-1111-----|-111111111-111111-1111-----|-------------------------|

G|-------------------------------|
D|-------------------------------|
A|-111111111-111111-111111-------| (1st Half)
E|-------------------------------|
B|-------------------------------|

G|---------------------------|---------------------------|-------------------------|
D|---------------------------|---------------------------|-------------------------|
A|-----------------------3-1-|-----------------------3-1-|-------------------------|
E|---------------------------|---------------------------|-444444444-444444-444444-|
B|-111111111-111111-1111-----|-111111111-111111-1111-----|-------------------------|

G|-------------------------------|
D|-----------------------5-3-1-0-|
A|-111111111-111111-1111---------| (2nd Half)
E|-------------------------------|
B|-------------------------------|


BRIDGE/BREAKDOWN
G|-----------------|------------------------------------|
D|-----------------|------------------------------------|
A|-----------------|------------------------------------|
E|-----------------|------------------------------------|
B|-1~---4-2-1-2-1~-|----11\0-0-0-0-0-0-0-0-0-0-0-0-0----|

G|---------------------------------------------------------------------------| 
D|---------------------------------------------------------------------------|  
A|---------------------------------------------------------------------------| X2 
E|---------------------------------------------------------------4331--------|
B|-111-111-111111-111-111-1111111111-111-111-111111-111-111-4212-------------|


CHORUS 3
G|---------------------------|---------------------------|-------------------------|
D|---------------------------|---------------------------|-------------------------|
A|-----------------------3-1-|-----------------------3-1-|-------------------------|
E|---------------------------|---------------------------|-444444444-444444-444444-|
B|-111111111-111111-1111-----|-111111111-111111-1111-----|-------------------------|

G|-------------------------------|
D|-------------------------------|
A|-111111111-111111-111111-------|
E|-------------------------------|
B|-------------------------------|

G|---------------------------|---------------------------|-------------------------|
D|---------------------------|---------------------------|-------------------------|
A|-----------------------3-1-|-----------------------3-1-|-------------------------|
E|---------------------------|---------------------------|-444444444-444444-444444-|
B|-111111111-111111-1111-----|-111111111-111111-1111-----|-------------------------|

G|-------------------------------|-------------------------|
D|-----------------------5-3-1-0-|-------------------------|
A|-111111111-111111-1111---------|-------------------------|
E|-------------------------------|-------------------------|
B|-------------------------------|-111111111-111111-111111-|

            
            
Suggest correction
Creating personal tab
Creating personal tab
You can edit any tab online and save it as your Personal.

You can edit, replace or remove any tab part or add personal notes – all changes will be seen only by you.

Personal tabs can be accessed anytime from any device, even offline.
Learn more »
comments
print report bad tab
3 comments total.
0 reply
Hotrodbeaner 10 Aug 21, 2010 08:38 AM

Dude this tab is close but NOT close enough I tuned to your tuning and played exactly what you tabed out and it is no where close!

0 reply
happygoth 10 Aug 27, 2010 01:12 PM

they dont use a 5 string dude...
they play on a 4 string but tune it to drop C...

0 reply
RockTillWeDrop 31 Feb 26, 2012 02:34 AM

Love that there's a 5 string tab for this song, one of the reasons for a 5-string is to minimalise down-tuning, thanks for this tab :)

guest
You may want to rate the tab now too:
select rating
Wanna post a correction for this tab? Suggest correction