Oops, an error
Loading. Please wait.
We have an official Your Betrayal tab made by UG professional guitarists. Check out the tab »
×
90,383 views 153 this week
7 commentsread comments
1 2 3 4 5
x 6
add to favorites
×
Save as Personal and add changes to this tab that will be seen only by you. Learn more ›
×
You can save this tab as Personal to edit and correct it or add notes. All changes will be seen only by you. Learn more »
launch autoscroll
font size
0
reset
how to read this tab
guitar tuner
backing track
0:00
0:00
edit
Autoscroll
slow
fast
+/-
esc
set tempo
stop
[Intro]

Both Guitars (x4) (Gtr 1 - x8)
D|----------------------------------------------------|
A|----------------------------------------------------|
F|----------------------------------------------------|
C|----------------------------------------------------|
G|-0-0-0-0-0-0-0-0-0--0-0-0-0-0--0-0-0-0-0------------|
C|-0-0-0-0-0-0-0-0-0--0-0-0-0-0--0-0-0-0-0------------|
   ^ ^ ^ ^ ^ ^ ^ ^ ^  ^ ^ ^ ^ ^  ^ ^ ^ ^ ^

(After 4x 'Guitar 2' starts playing after a **Pick Scrap** While 'Guitar 1' Plays the 
Pattern).

(Gtr 2)
D|-----------------------------------|
A|-----------------------------------|
F|-7-7-7-7-7-7-3-3-7-7-7-7-7-7-10-10-| 
C|-x-x-x-x-x-x-x-x-x-x-x-x-x-x-x--x--|
G|-5-5-5-5-5-5-1-1-5-5-5-5-5-5-8--8--|
C|-----------------------------------|(x2)

Both Guitars (x4) (Gtr 1 - x8)
D|----------------------------------------------------|
A|----------------------------------------------------|
F|----------------------------------------------------|
C|----------------------------------------------------|
G|-0-0-0-0-0-0-0-0-0--0-0-0-0-0--0-0-0-0-0------------|
C|-0-0-0-0-0-0-0-0-0--0-0-0-0-0--0-0-0-0-0------------|(x2)
   ^ ^ ^ ^ ^ ^ ^ ^ ^  ^ ^ ^ ^ ^  ^ ^ ^ ^ ^

(After That 'Intro Solo' Kicks in) 

D|----------------------------------------------------------------------|
A|----------------------------------------------------------------------|
F|----------------------------------------------------------------------|
C|------------------7p0-5p0-3p0-5p0-7p0-8p0-7p0-5p0-7p0-5p0-3p0-5p0-3p0-|
G|------5p0-3p0-5p0-----------------------------------------------------|
C|-\12/-----------------------------------------------------------------|

D|-----------------------------------------------------------------|
A|-----------------------------------------------------------------|
F|-----------------------------------------------------------------|
C|-------------7p0-5p0-3p0-5p0-7p0-8p0-7p0-5p0-7p0-5p0-3p0-5p0-3p0-|
G|-5p0-3p0-5p0-----------------------------------------------------|
C|-----------------------------------------------------------------|

D|-----------------------------------------------------------------|
A|-----------------------------------------------------------------|
F|-----------------------------------------------------------------|
C|-------------7p0-5p0-3p0-5p0-7p0-8p0-7p0-5p0-7p0-5p0-3p0-5p0-3p0-|
G|-5p0-3p0-5p0-----------------------------------------------------|
C|-----------------------------------------------------------------|

D|-----------------------------------------------------------------|
A|-----------------------------------------------------------------|
F|-----------------------------------------------------------------|
C|-------------7p0-5p0-3p0-5p0-7p0-8p0-7p0-5p0-7p0-5p0-3p0-5p0-3p0-|
G|-5p0-3p0-5p0-----------------------------------------------------|
C|-----------------------------------------------------------------|

(Gtr 1 Backs up the Intro solo with)

D|----------------------------------------------------|
A|----------------------------------------------------|
F|----------------------------------------------------|
C|----------------------------------------------------|
G|-0-0-0-0-0-0-0-0-0--0-0-0-0-0--0-0-0-0-0------------|
C|-0-0-0-0-0-0-0-0-0--0-0-0-0-0--0-0-0-0-0------------|(x4)
   ^ ^ ^ ^ ^ ^ ^ ^ ^  ^ ^ ^ ^ ^  ^ ^ ^ ^ ^

(After above x4 Guitar 1 Starts playing)

D|-----------------------------------------------------------------------------------------------|
A|-----------------------------------------------------------------------------------------------|
F|-7-7-7-7-7-7-7-7--7--7-7-7-7--7--7-7-7-7--7--7--7-7-7-7-7-7-7-7--7--7-7-7-7--7--7-7-7-7--7--5--|
C|-7-7-7-7-7-7-7-7--7--7-7-7-7--7--7-7-7-7--7--7--7-7-7-7-7-7-7-7--7--7-7-7-7--7--7-7-7-7--7--5--|
G|-5-5-5-5-5-5-5-5--5--5-5-5-5--5--5-5-5-5--5--5--5-5-5-5-5-5-5-5--5--5-5-5-5--5--5-5-5-5--5--3--|
C|-----------------------------------------------------------------------------------------------|

D|---------------------------------------------------------------------------------------------------------|
A|---------------------------------------------------------------------------------------------------------|
F|-3-3-3-3-3-3-3-3--3--3-3-3-3--3--3-3-3-3--3--3--5-5-5-5-5-5-5-5--5--5-5-5-5------------------------------|
C|-3-3-3-3-3-3-3-3--3--3-3-3-3--3--3-3-3-3--3--3--5-5-5-5-5-5-5-5--5--5-5-5-5---------------------------12\|
G|-1-1-1-1-1-1-1-1--1--1-1-1-1--1--1-1-1-1--1--1--3-3-3-3-3-3-3-3--3--3-3-3-3---------------------------12\|
C|-----------------------------------------------------------------------------3-0-0-0-0-0-3-0-0-0-0-0--12\|

(Finish Chorus and into verse with)

(Gtr 1)                        (Gtr 2)
D|------------------|          D|------------------|
A|------------------|          A|------------------|
F|------------------|          F|------------------|
C|-\7--5--3--2------|          C|-\3--2--0---------|
G|------------------|          G|-----------3------|
C|------------------|          C|------------------|


[Verse]

(Gtr 1)
D|---------------------------------------|
A|--------------------------6-5-3-5------|
F|----------------------------------5-2--|
C|---------------------------------------|
G|-0--0-0-0------0--0--0-0---------------|
C|-0--0-0-0------0--0--0-0---------------|
   ^  ^ ^ ^      ^  ^  ^ ^
(Gtr 2)                                  
D|---------------------------------------|
A|---------------------------------------|
F|---------------------------------------|
C|--------------------------3-----2------|
G|-0-0--0-0------0--0--0-0----5-3---3----|
C|-0-0--0-0------0--0--0-0------------3--|(x4)
   ^ ^  ^ ^      ^  ^  ^ ^                
 
(Into Chorus with)

(Both Guitars)
D|-----------------------------------|
A|-----------------------------------|
F|-----------------------------------|
C|-0~~~~~~~~~~~~---------------------|
G|-0~~~~~~~~~~~~---------------------|
C|-0~~~~~~~~~~~~---(**Pick Scrap**)--|


[Chorus](x2)

D|-----------------------------------------------------------------------------------------------|
A|-----------------------------------------------------------------------------------------------|
F|-7-7-7-7-7-7-7-7--7--7-7-7-7--7--7-7-7-7--7--7--7-7-7-7-7-7-7-7--7--7-7-7-7--7--7-7-7-7--7--5--|
C|-7-7-7-7-7-7-7-7--7--7-7-7-7--7--7-7-7-7--7--7--7-7-7-7-7-7-7-7--7--7-7-7-7--7--7-7-7-7--7--5--|
G|-5-5-5-5-5-5-5-5--5--5-5-5-5--5--5-5-5-5--5--5--5-5-5-5-5-5-5-5--5--5-5-5-5--5--5-5-5-5--5--3--|
C|-----------------------------------------------------------------------------------------------|

D|---------------------------------------------------------------------------------------------------------|
A|---------------------------------------------------------------------------------------------------------|
F|-3-3-3-3-3-3-3-3--3--3-3-3-3--3--3-3-3-3--3--3--5-5-5-5-5-5-5-5--5--5-5-5-5------------------------------|
C|-3-3-3-3-3-3-3-3--3--3-3-3-3--3--3-3-3-3--3--3--5-5-5-5-5-5-5-5--5--5-5-5-5---------------------------12\|
G|-1-1-1-1-1-1-1-1--1--1-1-1-1--1--1-1-1-1--1--1--3-3-3-3-3-3-3-3--3--3-3-3-3---------------------------12\|
C|-----------------------------------------------------------------------------3-0-0-0-0-0-3-0-0-0-0-0--12\|
 
(Then Finish Chorus and into verse with)

(Gtr 1)                        (Gtr 2)
D|------------------|          D|------------------|
A|------------------|          A|------------------|
F|------------------|          F|------------------|
C|-\7--5--3--2------|          C|-\3--2--0---------|
G|------------------|          G|-----------3------|
C|------------------|          C|------------------|


[Verse]

(Gtr 1) 
D|----------------------------------------|
A|---------------------------6-5-3-5------|
F|-----------------------------------5-2--|
C|----------------------------------------|
G|-0--0--0-0------0--0--0-0---------------|
C|-0--0--0-0------0--0--0-0---------------|
   ^  ^  ^ ^      ^  ^  ^ ^
(Gtr 2)                                   
D|----------------------------------------|
A|----------------------------------------|
F|----------------------------------------|
C|---------------------------3-2---2------|
G|-0--0--0-0------0--0--0-0------5---3-0--|
C|-0--0--0-0------0--0--0-0---------------|(x4)
   ^  ^  ^ ^      ^  ^  ^ ^

(Into Chorus With)

(Both Guitars)
D|-----------------------------------|
A|-----------------------------------|
F|-----------------------------------|
C|-0~~~~~~~~~~~~---------------------|
G|-0~~~~~~~~~~~~---------------------|
C|-0~~~~~~~~~~~~---(**Pick Scrap**)--|


[Chorus](x2)

D|-----------------------------------------------------------------------------------------------|
A|-----------------------------------------------------------------------------------------------|
F|-7-7-7-7-7-7-7-7--7--7-7-7-7--7--7-7-7-7--7--7--7-7-7-7-7-7-7-7--7--7-7-7-7--7--7-7-7-7--7--5--|
C|-7-7-7-7-7-7-7-7--7--7-7-7-7--7--7-7-7-7--7--7--7-7-7-7-7-7-7-7--7--7-7-7-7--7--7-7-7-7--7--5--|
G|-5-5-5-5-5-5-5-5--5--5-5-5-5--5--5-5-5-5--5--5--5-5-5-5-5-5-5-5--5--5-5-5-5--5--5-5-5-5--5--3--|
C|-----------------------------------------------------------------------------------------------|

D|---------------------------------------------------------------------------------------------------------|
A|---------------------------------------------------------------------------------------------------------|
F|-3-3-3-3-3-3-3-3--3--3-3-3-3--3--3-3-3-3--3--3--5-5-5-5-5-5-5-5--5--5-5-5-5------------------------------|
C|-3-3-3-3-3-3-3-3--3--3-3-3-3--3--3-3-3-3--3--3--5-5-5-5-5-5-5-5--5--5-5-5-5---------------------------12\|
G|-1-1-1-1-1-1-1-1--1--1-1-1-1--1--1-1-1-1--1--1--3-3-3-3-3-3-3-3--3--3-3-3-3---------------------------12\|
C|-----------------------------------------------------------------------------3-0-0-0-0-0-3-0-0-0-0-0--12\|
 
(Finish Chorus and Into Breakdown)

(Gtr 1)                        (Gtr 2)
D|------------------|          D|------------------|
A|------------------|          A|------------------|
F|------------------|          F|------------------|
C|-\7--5--3--2------|          C|-\3--2--0---------|
G|------------------|          G|-----------3------|
C|------------------|          C|------------------|


[Breakdown]

(Gtr 1) 
D|----------------------------------------------------------------------------|
A|----------------------------------------------------------------------------|
F|----------------------------------------------------------------------------|
C|-0~~~~~~~~~-----------0~~~~~~-----------------------------------------------|
G|-0~~~~~~~~~--3-2-1-0--0~~~~~~--(*Softly Pick Scrap)-0-0-0-0-0-0-0-0-0-0-0-0-|
C|-0~~~~~~~~~--3-2-1-0--0~~~~~~-----------------------0-0-0-0-0-0-0-0-0-0-0-0-|
               ^ ^ ^ ^                                ^ ^ ^ ^ ^ ^ ^ ^ ^ ^ ^ ^
(Gtr 2)                                            
D|--------------------------------------------------------------|
A|-10--10--10--10--11--11--11--11--8-8-8-8-10--10---{11-10-8---}|
F|---10--10--10--10--10--10--10--10-9-9-9-9--10--10-{-------10-}|
C|--------------------------------------------------------------| 
G|--------------------------------------------------------------|
C|--------------------------------------------------------------|(x2)

(Gtr 1)

(strum pattern might be different in 2nd and 4th time)
D|-------------------------------------------------------|
A|-------------------------------------------------------|
F|-------------------------------------------------------|
C|-------------------------------------------------------|
G|-0-0-0--0-0-0--0--0-0-0-0--0-0-0--0-0-0--0--0-0--0-0-0-| 
C|-0-0-0--0-0-0--0--0-0-0-0--0-0-0--0-0-0--0--0-0--0-0-0-|(x4)

(Gtr 2)
D|------------------------------------------------------------------|
A|-10--10--10--10--11--11--11--11--8--8--8--8--10--10---{11-10-8---}|
F|---10--10--10--10--10--10--10--10-10-10-10-10--10--10-{-------10-}|
C|------------------------------------------------------------------| 
G|------------------------------------------------------------------|
C|------------------------------------------------------------------|(x4)


(Into Chorus With)

(Both Guitars)
D|-----------------------------------|
A|-----------------------------------|
F|-----------------------------------|
C|-0~~~~~~~~~~~~---------------------|
G|-0~~~~~~~~~~~~---------------------|
C|-0~~~~~~~~~~~~---(**Pick Scrap**)--|


[Chorus](x2)

D|-----------------------------------------------------------------------------------------------|
A|-----------------------------------------------------------------------------------------------|
F|-7-7-7-7-7-7-7-7--7--7-7-7-7--7--7-7-7-7--7--7--7-7-7-7-7-7-7-7--7--7-7-7-7--7--7-7-7-7--7--5--|
C|-7-7-7-7-7-7-7-7--7--7-7-7-7--7--7-7-7-7--7--7--7-7-7-7-7-7-7-7--7--7-7-7-7--7--7-7-7-7--7--5--|
G|-5-5-5-5-5-5-5-5--5--5-5-5-5--5--5-5-5-5--5--5--5-5-5-5-5-5-5-5--5--5-5-5-5--5--5-5-5-5--5--3--|
C|-----------------------------------------------------------------------------------------------|

D|---------------------------------------------------------------------------------------------------------|
A|---------------------------------------------------------------------------------------------------------|
F|-3-3-3-3-3-3-3-3--3--3-3-3-3--3--3-3-3-3--3--3--5-5-5-5-5-5-5-5--5--5-5-5-5------------------------------|
C|-3-3-3-3-3-3-3-3--3--3-3-3-3--3--3-3-3-3--3--3--5-5-5-5-5-5-5-5--5--5-5-5-5---------------------------12\|
G|-1-1-1-1-1-1-1-1--1--1-1-1-1--1--1-1-1-1--1--1--3-3-3-3-3-3-3-3--3--3-3-3-3---------------------------12\|
C|-----------------------------------------------------------------------------3-0-0-0-0-0-3-0-0-0-0-0--12\|


(Finish Chorus with)

(Gtr 1)                       (Gtr 2)
D|--------------------|       D|------------------|
A|-8\10--8--6---------|       A|------------------|
F|-------------5------|       F|------------------|
C|--------------------|       C|-3\5--3--2--------|
G|--------------------|       G|------------3-----|
C|--------------------|       C|------------------|


[Outro]

(Both Guitars)
D|----------------------------------------------------|
A|----------------------------------------------------|
F|----------------------------------------------------|
C|----------------------------------------------------|
G|-0-0-0-0-0-0-0-0-0--0-0-0-0-0--0-0-0-0-0------------|
C|-0-0-0-0-0-0-0-0-0--0-0-0-0-0--0-0-0-0-0------------|
   ^ ^ ^ ^ ^ ^ ^ ^ ^  ^ ^ ^ ^ ^  ^ ^ ^ ^ ^

************************************

| x  Dead note
| p  Pull-off
| /  Slide up
| \  Slide down
| ~  Vibrato

************************************

            
            
Suggest correction
Creating personal tab
Creating personal tab
You can edit any tab online and save it as your Personal.

You can edit, replace or remove any tab part or add personal notes – all changes will be seen only by you.

Personal tabs can be accessed anytime from any device, even offline.
Learn more »
comments
print report bad tab
7 comments total. Showing first comments.
0 reply
guitarnewb:) 10 Jul 13, 2010 07:17 PM

|-----------------------------------
|-----------------------------------
|-7-7-7-7-7-7-3-3-7-7-7-7-7-7-10-10-
|-x-x-x-x-x-x-x-x-x-x-x-x-x-x-x--x--
|-5-5-5-5-5-5-1-1-5-5-5-5-5-5-8--8--
|-----------------------------------
What do th X's mean? sorry im a beginner:(

0 reply
kian89 262 Aug 03, 2010 12:25 PM

X's means you Mute the the X'ed strings in an appropriate manner.

0 reply
thebobpalmer 10 Sep 17, 2010 02:48 PM

nice tab. ive been tryin to figure this song out for a couple hours now. i think ive got it down now.

guest
You may want to rate the tab now too:
select rating
Wanna post a correction for this tab? Suggest correction