Oops, an error
Loading. Please wait.

My Disease Bass Tab

version 1
version 1

Whole song

Interactive

517 views 1 this week
no commentswrite comment
1 2 3 4 5
2 more votes to show rating
add to favorites
launch autoscroll
font size
0
reset
guitar tuner
Autoscroll
slow
fast
+/-
esc
set tempo
stop
Help us to improve Ultimate-Guitar.com Take our survey!
×
Author
Tuning
D A D G B E
Here's another Bullets and Octane tab

=Intro=
G----------|
D----------|  2x
A----------|
D-9~-6~-1~-|

=Couplet=
G------------------------------|
D------------------------------| 2x
A--------------------------444-|
D-111111111-7-8-666666-4444----|

G--------------------------|
D--------------------------|  2x
A----------------------444-|
D-111111111-666666-4444----|

=Pre-Chorus=
G---------------------------------------|
D---------------------------------------|
A---------------------------------------|
D-66666666-11111111-666666-6-7-88888888-|

=Chorus=
G--------------------------------------------------------------|
D--------------------------------------------------------------|  2x
A-------------------------------------------------44444444-555-|
D-1-11111-9-99999-6-66666-1-11111--9-99999-6-66666-------------|

=Couplet=
G------------------------------|
D------------------------------|
A--------------------------444-|
D-111111111-7-8-666666-4444----|

G--------------------------|
D--------------------------|  2x
A----------------------444-|
D-111111111-666666-4444----|

=Pre-Chorus=
G---------------------------------------|
D---------------------------------------|
A---------------------------------------|
D-66666666-11111111-666666-6-7-88888888-|

=Chorus=
G--------------------------------------------------------------|
D--------------------------------------------------------------|  2x
A-------------------------------------------------44444444-555-|
D-1-11111-9-99999-6-66666-1-11111--9-99999-6-66666-------------|

=Bridge=
G---------------------------------------------------|
D---------------------------------------------------|
A---------------------------------------------------|
D-1-1-xxxxx-1-1-xxxxx-1-1-xxxxx-1---99-99-66-66-666-|

G------------------------------|
D------------------------------|  3x
A------------------------------|
D-1-1--1-1--1--99-99-66-66-666-|

G-----------------------------------|
D-----------------------------------|  (this part is fast and maybe hard)
A-------------------------------1-1-|
D-1/8/1--1-1-6-1-4-1-4-1-3-1-4-1----|

=Chorus=
G----------------------------------------------------------|
D----------------------------------------------------------|
A---------------------------------------------44444444-555-|
D-1---9-99999-6-66666-1-11111--9-99999-6-66666-------------|

G--------------------------------------------------------------|
D--------------------------------------------------------------| 3x(last time
A------------------------------------------------(44444444-555)|   don't play
D-1-11111-9-99999-6-66666-1-11111--9-99999-6-66666-------------|  the(4...5))

=Outro=
G------------------------------|
D------------------------------|
A------------------------------|
D-1--xxxxx-1--xxxxx-1--xxxxx-1-|

Plz rate?
Suggest correction
Give kudos to tab author, rate the tab!
1 2 3 4 5
comments
print report bad tab
guest
You may want to rate the tab now too:
select rating
Wanna post a correction for this tab? Suggest correction