Oops, an error
Loading. Please wait.

Milkman tab

by Bully
991 views 3 this week
no commentswrite comment
1 2 3 4 5
1 last vote to show rating
add to favorites
×
Save as Personal and add changes to this tab that will be seen only by you. Learn more ›
×
You can save this tab as Personal to edit and correct it or add notes. All changes will be seen only by you. Learn more »
launch autoscroll
font size
0
reset
how to read this tab
guitar tuner
edit
Autoscroll
slow
fast
+/-
esc
set tempo
stop
Author
Please rate :)

[Intro]

E|---0------0------5---|
B|---10--x--0------5---|
G|---9------9------7---|
D|---0------0------7---|
A|---9------9------5---|
E|---0------0------5---|


[Verse 1]

E|---0------0------5---|
B|---10--x--0------5---|
G|---9------9------7---|
D|---0------0------7---|
A|---9------9------5---|
E|---0------0------5---|

I could be a milkman
What a good milkman I would be, I would be
Droppin' by your porch and all
It's been a while, you're always good to see
But I'm just a circle in Logan's square
Spinnin' around in my underwear
Lettin' my body run itself dead
Just to try and keep up with my head


[Chorus]

E|---5-----12-----7----|
B|---5-----12-----7----|
G|---5-----12-----7----|
D|---5-----12-----7----|
A|---5-----12-----7----|
E|---5-----12-----7----|

I got this feelin', makes me wanna run
I got the feelin'
I got this feelin', makes me wanna run
Oh I got the feelin


[Verse 2]

E|---0------0------5---|
B|---10--x--0------5---|
G|---9------9------7---|
D|---0------0------7---|
A|---9------9------5---|
E|---0------0------5---|

I could be a milkman
Or I could get up and I could be what I want to be
Cause when I love you, love you, love you baby
It makes you want to, want to lie to me
When I checked out 10 months ago
I never felt that way before
Now all this warm weather got me feelin' nostalgic
Got a craving, gotta have it, gotta get a grip


[Chorus]

E|---5-----12-----7----|
B|---5-----12-----7----|
G|---5-----12-----7----|
D|---5-----12-----7----|
A|---5-----12-----7----|
E|---5-----12-----7----|

I got this feelin', makes me wanna run
I got the feelin'
I got this feelin', makes me wanna run
Oh I got the feelin


[Bridge] 

E|---0------0------0------0----|
B|---10-----6------10-----13---|
G|---11-----7------11-----14---|
D|---0------0------0------0----|
A|---9------5------9------12---|
E|---0------0------0------0----|


[Bridge 2]

E|---0------0------0----|
B|---8------10-----16---|
G|---9------11-----17---|
D|---0------0------0----|
A|---7------9------15---|
E|---0------0------0----|


[Outro]

E|---0------0------5---|
B|---10--x--0------5---|
G|---9------9------7---|
D|---0------0------7---|
A|---9------9------5---|
E|---0------0------5---|

I used to be a shark
I used to be a shark
I used to be a shark
Oh I used to be a....
SHARK! SHARK! SHARK!



************************************

| x  Dead note

************************************

            
            
Suggest correction
Creating personal tab
Creating personal tab
You can edit any tab online and save it as your Personal.

You can edit, replace or remove any tab part or add personal notes – all changes will be seen only by you.

Personal tabs can be accessed anytime from any device, even offline.
Learn more »
Give kudos to tab author, rate the tab!
1 2 3 4 5
comments
print report bad tab
guest
You may want to rate the tab now too:
select rating
Wanna post a correction for this tab? Suggest correction