Oops, an error
Loading. Please wait.

Darah Muda Bass Tab

31 views 12 this week
no commentswrite comment
1 2 3 4 5
2 more votes to show rating
add to favorites
launch autoscroll
font size
0
reset
guitar tuner
Autoscroll
slow
fast
+/-
esc
set tempo
stop
Help us to improve Ultimate-Guitar.com Take our survey!
×
Author
Difficulty
intermediate
Tabbed by : tuahzayan
E-mail : tuahzayan@gmail.com


Starts at 0:19

G|-----------------|--------|----------|----------------------------|
D|-----------------|--------|----------|----------------------------|
A|-2/4--4--4--4--4-|--------|-2--------|-2----2-----2/4-4--4-4--4-4-|
E|-----------------|-2--2-2-|---2--2-2-|---2----2-------------------|


[Verse 1]

Malam ini, seksi...
G|--------------------------------------|
D|--------------------------------------|   x2
A|-----2------2----2----2/4-4--4-4--4-4-|
E|-2-----2------2----2------------------|


[Pre-Chorus]

Ini cerita...
G|------------------------------------|
D|------------------------------------|  x2
A|-----2-----6--6-6--6-6--4--4-4--4-4-|
E|-2-----2----------------------------|


[Chorus]

Pulanglah malam ini...
G|--------------------|--------------------|
D|---8-8-6-8----------|---4-4-3------------|
A|-6----------4-6-8-9-|-2-------4----------|
E|--------------------|------------2-2-1-1-|

Janji aku padamu...
G|------------------------------|
D|---8-8-6-8--------------------|
A|-6----------4-6-8-9--2--4-----|
E|---------------------------2~-|


[Verse 2]

Aku mahu, dia...
G|--------------------------------------|
D|--------------------------------------|   x2
A|-----2------2----2----2/4-4--4-4--4-4-|
E|-2-----2------2----2------------------|


[Pre-Chorus]

Ini cerita...
G|------------------------------------|
D|------------------------------------|  x2
A|-----2-----6--6-6--6-6--4--4-4--4-4-|
E|-2-----2----------------------------|


[Chorus]

Pulanglah malam ini...
G|--------------------|--------------------|
D|---8-8-6-8----------|---4-4-3------------|
A|-6----------4-6-8-9-|-2-------4----------|
E|--------------------|------------2-2-1-1-|

Janji aku padamu...
G|--------------------|--------------------------|
D|---8-8-6-8----------|--------------------------|
A|-6----------4-6-8-9-|-2--2-2--2-2--4--4-4--4-4-|
E|--------------------|--------------------------|

Pulanglah malam ini...
G|--------------------|--------------------|
D|---8-8-6-8----------|---4-4-3------------|
A|-6----------4-6-8-9-|-2-------4----------|
E|--------------------|------------2-2-1-1-|

Janji aku padamu...
G|------------------------------|
D|---8-8-6-8--------------------|
A|-6----------4-6-8-9--2--4-----|
E|---------------------------2~-|


[Bridge]

G|--------------------------------------|
D|--------------------------------------|   
A|-----2------2----2----2/4-4--4-4--4-4-|
E|-2-----2------2----2------------------|

G|--------------------------------------|
D|--------------------------------------|   
A|-----2------2----2----2/4-4--4-4--4-4-|
E|-2-----2------2----2------------------|

Nanananananana...
G|-------------|-------------|-------------|-------------|
D|-------------|-------------|-------------|-------------|  x2
A|-6--6-6--6-6-|-2--2-2--2-2-|-------------|-4--4-4--4-4-|
E|-------------|-------------|-2--2-2--2-2-|-------------|


[Pre-Chorus]

Ini cerita...
G|------------------------------------|
D|------------------------------------|  
A|-----2-----6--6-6--6-6--4--4-4--4-4-|
E|-2-----2----------------------------|

G|--------------|
D|--------------|  
A|-----2-----4~-|
E|-2-----2------|


[Chorus and Outro]

Pulanglah malam ini...
G|--------------------|--------------------|
D|---8-8-6-8----------|---4-4-3------------|
A|-6----------4-6-8-9-|-2-------4----------|
E|--------------------|------------2-2-1-1-|

Janji aku padamu...
G|--------------------|--------------------------|
D|---8-8-6-8----------|--------------------------|
A|-6----------4-6-8-9-|-2--2-2--2-2--4--4-4--4-4-|
E|--------------------|--------------------------|

Pulanglah malam ini...
G|--------------------|--------------------|
D|---8-8-6-8----------|---4-4-3------------|
A|-6----------4-6-8-9-|-2-------4----------|
E|--------------------|------------2-2-1-1-|

Janji aku padamu...
G|-----------------------|---------------------|-----------------------------|
D|---8-8-6-8-------------|-----------------4-3-|-----------------------------|
A|-6----------4-6-8-9--2-|-2-2--2-2--4--4-4----|-2--2-2--2-2--4--4-4--4-4----|
E|-----------------------|---------------------|--------------------------2~-|

G|---------------------------|
D|---------------------------|
A|-4-4-4-4-4-4-4-4-4-4-4-4---|
E|-------------------------2-|



************************************

| x   Dead note
| g   Grace note
| (n) Ghost note
| h   Hammer-on
| p   Pull-off
| r   Release
| >   Accented note
| t   Tapping
| b   Bend
| br  Bend release
| pb  Pre-bend
| pbr Pre-bend release
| /   Slide up
| \   Slide down
| ~   Vibrato
| s   Slap
| P   Pop
| PM  Palm mute
| TR  Trill
| N   Tremolo

************************************
Suggest correction
Give kudos to tab author, rate the tab!
1 2 3 4 5
comments
print report bad tab
guest
You may want to rate the tab now too:
select rating
Wanna post a correction for this tab? Suggest correction