Oops, an error
Loading. Please wait.

Silly Lily Tab

version 1
version 1

Whole song

Interactive

9,833 views 1 this week
2 commentsread comments
1 2 3 4 5
please rate
add to favorites
launch autoscroll
font size
0
reset
how to read this tab
guitar tuner
Tab Pro tools
  • play this tab
  • loop segment
  • change instrument
  • show fretboard
  • metronome
×
Best way to learn
"Silly Lily"
Autoscroll
slow
fast
+/-
esc
set tempo
stop
Contributor
Assalamualaikum..

Band    : Bunkface
Song    : Silly Lily
Album   : Lesson of the Season
Tuning  : Standard

verse 1
e|------------------------------------------------------------------|
B|------------------------------------------------------------------|
G|-----8-------8-------8-------8-------8-------8-------8---8--------|
D|---8---8---8---8---8---8---8---8---8---8---8---8---8---8-8----8\--|
A|-6-------6---------------------------------------6-------6----8\--|
E|-----------------4-------4-------6-------4--------------------6\--|

e|--------------------------------------------------------------------------|
B|--------------------------------------------------------------------------|
G|-8-8-8-88888-8-88-----------------------------------------------8/10\8----|
D|-8-8-8-88888-8-88-6-6-6-66666-6-66-8-8-8-88866-6-66-8-8-8-88888-x/-x\x----|
A|-6-6-6-66666-6-66-6-6-6-66666-6-66-8-8-8-88866-6-66-6-6-6-66666-6/-8\6----|
E|------------------4-4-4-44444-4-44-6-6-6-66644-4-44-----------------------|
   . .   .....   .. . .   .....   .. . .   .....   .. . .   .....

pre-chorus
e|------------------------------------------------------------------|
B|------------------------------------------------------------------|
G|------------------------------------------------------------------|
D|-6-6-6-66666-6--8-8-8-88888-8--6-6-6-66666-6--8--8--88888888------|
A|-6-6-6-66666-6--8-8-8-88888-8--6-6-6-66666-6--8--8--88888888------|
E|-4-4-4-44444-4--6-6-6-66666-6--4-4-4-44444-4--6--6--66666666------|
   . . . ..... .  . . . ..... .  . . . ..... .

chorus (pkai chord full pun ok gak..)
  X8    X8   X8   X8     X8   X8   X8  X8
e|---------------------|---------------------|
B|---------------------|---------------------|
G|-8--------------8----|-8-------------------|
D|-8----6----8----8----|-8----6----3----8----|  X2
A|-6----6----8----6----|-6----6----3----8----|
E|------4----6---------|------4----1----6----|

post-chorus
1 gitar maen nie, lg 1 xkonpem…xtau btol ke x…
e|-------------------------------------------|
B|-8888-4444-9999-6666-8888-4444-9999-6-6----|
G|-8888-5555-7777-3333-8888-5555-7777-3-3----|
D|-------------------------------------------|  X2
A|-------------------------------------------|
E|-------------------------------------------|

verse 2
  X16  X16  X8  X8
e|------------------------------------------------------------------|
B|------------------------------------------------------------------|
G|-8----8----------88-8-88-8-8/15-15-15-15-15-15-15-15--------------|
D|-8----8----8--6--88-8-88-8-x/-x--x--x--x--x--x—-x--x--------------|
A|-6----6----8--6--66-6-66-6-6/13-13-13-13-13-13-13-13--------------|
E|------4----6--4---------------------------------------------------|
                   ..   ..

e|---------------------|---------------------|----------------------|
B|---------------------|---------------------|----------------------|
G|-88-8-88-8-88-8-88-8-|---------------------|----------------------|
D|-88-8-88-8-88-8-88-8-|-66-6-66-6-66-6-66-6-|-88-8-88-8-66-6-66-6--|
A|-66-6-66-6-66-6-66-6-|-66-6-66-6-66-6-66-6-|-88-8-88-8-66-6-66-6--|
E|---------------------|-44-4-44-4-44-4-44-4-|-66-6-66-6-44-4-44-4--|
   ..   ..   ..   ..     ..   ..   ..   ..     ..   ..   ..   ..
(continued
e|-------------------------------------------|
B|-------------------------------------------|
G|-88-8-88-8-8/13-13-13-13-13-13-13-13-13----|
D|-88-8-88-8-x/-x--x--x--x--x--x--x--x--x----|
A|-66-6-66-6-6/11-11-11-11-11-11-11-11-11----|
E|-------------------------------------------|
   ..   ..

pre-chorus 2
kt G# yg 1st  nie(yg ade tnda *), strum yg p’tama xyah palm..yg ke-2 bru start, susah2 
dgr je la lgu dia)
   X16  X16  X16
e|-----------------------------------|
B|-----------------------------------|
G|-----------------------------------|
D|-*6----8----6----8--8--88888888----|
A|-*6----8----6----8--8--88888888----|
E|-*4----6----4----6--6--66666666----|
    .    .    .

chorus

SOLO A
Lead (ulang 2 kali)
xtau r bunkface main kat ner tp aku ske main kt tali b ngan e..
e|--------------3--------------------|
B|-4p3h4p3h4p3h4-----6-4-3-4-6-4-----|  X3

e|-6h8-6h8-6h8-6h8/-10-8-6\----------|
B|-----------------------------------|

Rhythm
  X16  X16  X16  X8
e|-----------------------------------|
B|-----------------------------------|
G|-8---------8-----------------------|
D|-8----6----8----6--8-8-8\----------|  X2
A|-6----6----6----6--8-8-8\----------|
E|------4---------4--6-6-6\----------|

Guitar breakdown
e|------------------------10b11(masuk efek)----|
B|---------------------------------------------|
G|-8~------8~----10-8~-------------------------|
D|-8~------8~----10-8~-------------------------|
A|-6~----5-6~-----8-6~-------------------------|
E|---------------------------------------------|

SOLO B
e|-----------------------------------|
B|-----------------------------------|
G|-----------------------------------|
D|-----5/6-----7/8-----3/4-----------|  X4
A|-5-6-----5-6-----5-6-----5-6-5/6---|
E|-----------------------------------|
   . .     . .     . .     . .

e|-----------------------------------|
B|-----------------------------------|
G|---------------------5/6-----8/9---|
D|-----5/6-----7/8-------------------|  X3
A|-5-6-----5-6-----5-6-----5-6-------|
E|-----------------------------------|
   . .     . .     . .     . .

e|-----------------------------------|
B|-----------------------------------|
G|-----------------6-5-6-5-----------|
D|-----5/6-----7/8---------8---------|
A|-5-6-----5-6-----------------------|
E|-----------------------------------|
   . .     . .

SOLO C (nie bley pggil solo ke?)
e|--------------------------------|
B|--------------------------------|
G|-8-88---------------------------|
D|-8-88-8~----6-66-8-6------------|  X8
A|-6-66-8~----6-66-8-6------------|
E|------6~----4-44-6-4------------|
   . ..       . ..

e|-----------------------------------|
B|-----------------------------------|
G|-8~--------------------------------|
D|-8~-----------(bass)---------------|
A|-6~----------11-10-8-6-------------|
E|-----------------------------------|

Nk masuk chorus blik..
                                        “silly lily!…”
e|-------------------------------------------|
B|-------------------------------------------|
G|-3-3-3~----3-3-3~---3-3-3~-5~-7~-8-10-8\---|
D|-3-3-3~----3-3-3~---3-3-3~-5~-7~-8-10-8\---|
A|-1-1-1~----1-1-1~---1-1-1~-3~-5~-6--8—6\---|
E|-------------------------------------------|

          “never really liked me…”
           X8    X8
e|-----------------------------------|
B|-----------------------------------|
G|---------------8-------------------|
D|-3--5--6--8----8-------------------|
A|-3--5--6--8----6-------------------|
E|-1--3--4--6------------------------|

Smbung chorus cm biasa….

bridge
                                        1st time wat X8,2nd wat X4.(utk chord nie je)
  X8    X8   X8   X8     X8   X8   X8   X8/X4
e|---------------------|---------------------|
B|---------------------|---------------------|
G|-8-------------------|-8-------------------|
D|-8----6----8----6----|-8----6----3----8----|  X2
A|-6----6----8----6----|-6----6----3----8----|
E|------4----6----4----|------4----1----6----|

End on
e|-6~--|
B|-8~--|
G|-8~--|
D|-8~--|
A|-6~--|
E|-----|

xxxxxxxxxxxxxxxxxxxxxxxxxxxxxxxxxxxxxxxxxxxxxxxxxxxxxxxxxxx
k…any comments/requests please contact me..
zar_of_filth92@yahoo.com
for myspace users u can find me using my email..

Assalamualaikum..
comments
We did not receive enough feedback on this tab! Please rate:
print report bad tab
1 2 3 4 5
2 comments total.
+2 reply
ZKY SCHECTER wrote on December 24 2008, 06:26 am

Bley tahan la tabs nie...bley gak bwk g jamming...bravo..

0 reply
panic filth wrote on January 10 2009, 01:10 am

Thx..

I want to post or [tab]
guest
You may want to rate the tab now too:
select rating
Please do not post tabs as comments. Select "correction" instead!