Oops, an error
Loading. Please wait.

Situasi Tab

version 1
version 1

Whole song

Interactive

45,235 views 24 this week
1 commentread comment
1 2 3 4 5
accurate
x 3
add to favorites
launch autoscroll
font size
0
reset
how to read this tab
guitar tuner
Tab Pro tools
  • play this tab
  • loop segment
  • change instrument
  • show fretboard
  • metronome
×
Best way to learn
"Situasi"
Autoscroll
slow
fast
+/-
esc
set tempo
stop
i tried so hard to lesson diz tab and in the end of the ending is...i haven got a 
correct on for diz tab....itz 95% correct...let got tabbing....yeah


standard tunning...

intro

]---------------------------------]
]---------------------------------]
]------6-6------------------------] 2x
]-8-8--6-6--4-4--6-6--------------]
]-8-8--4-4--4-4--6-6--------------]
]-6-6-------2-2--4-4--------------]

]---------------------------------]
]---------------------------------]
]-------6-66----------------------] 2x
]-8-88--6-66--4-44--6-66----------]
]-8-88--4-44--4-44--6-66----------]
]-6-66--------2-22--4-44----------]


pre-cho
gtr 1 

]---------------------------------]
]---------------------------------]
]---------------------------------]
]-4~--8~--4~--6~------------------]
]-4~--8~--4~--6~------------------]
]-2~--6~--2~--4~------------------]
              ....................palm mute

gtr 2

]--------------------------------------------------------------------------]
]-----13-14-17-------------------------------------------------------------]
]--15-------------13-14-------------13-14-16----16-16-16-16-16-16-16-16----]
]--------------15----------15-13-15----------15----------------------------]
]--------------------------------------------------------------------------]
]--------------------------------------------------------------------------]

chorus
gtr 1&2

]-----------------------------------------------------------]
]-----------------------------------------------------------]
]-6666666666666666------------------------------------------]
]-6666666666666666-6666666666666666-8888888888888888--------]
]-4444444444444444-6666666666666666-8888888888888888--------]
]------------------4444444444444444-6666666666666666--------]\
                                                              > 2x
]-----------------------------------------------------------]/
]-----------------------------------------------------------]
]-----------------------------------------------------------]
]-4444444444444444-6666666666666666-------------------------]
]-4444444444444444-6666666666666666-------------------------]
]-2222222222222222-4444444444444444-------------------------]

gtr 3(acoustic guitar)

]-555~-------------555~-------------111~--------------------]
]-666~-------------555~-------------333~--------------------]
]-777~-------------xxx~-------------333~--------------------]
]-777~-------------777~-------------333~--------------------]
]------------------777~-------------------------------------]
]-----------------------------------------------------------]\
                                                              > 2x
]-222~-------------555~-------------------------------------]/
]-222~-------------555~-------------------------------------]
]-222~-------------xxx~-------------------------------------]
]-444~-------------777~-------------------------------------]
]-444~-------------777~-------------------------------------]
]-222~------------------------------------------------------]


repeat intro
repeat pre-cho
repeat chorus

gtr 1
]-----------------------------------------------------------] 
]-----------------------------------------------------------]
]-----------------------------------------------------------]
]-444/-333\-666-888---444-666-888-101010-121212~------------]
]-444/-333\-666-888---444-666-888-101010-121212~------------]
]-222/-111\-444-666---222-444-666-8-8-8--101010~------------]

gtr 2
]-----------------------------------------------------------]
]-----------------------------------------------------------]
]-111111\101010-151515/131313--111111\131313\151515\171717~-]
]-x-x-x-\x-x-x--x-x-x-/x-x-x---x-x-x-\x-x-x-\x-x-x-\x-x-x-~-]
]-9-9-9-\8-8-8--131313/111111--9-9-9-\111111\131313\151515~-]
]-----------------------------------------------------------]

low ...
gtr 3
]-----------------------------------------------------------]
]-----------------------------------------------------------]
]-6---------------------------------------------------------]
]-6-(8x)-6------8------4------6-----------------------------]
]-4------6-(8x)-8-(8x)-4-(8x)-6-(x)-------------------------]
]--------4------6------2------4-----------------------------]
                              .............

repeat chorus


                            *END*
any sub missing plz email me at flipzsoilemoz@ymail.com


comments
We did not receive enough feedback on this tab! Please rate:
print report bad tab
1 2 3 4 5
1 comment total.
0 reply
panic filth wrote on January 2 2009, 04:08 am

try usha aku nyer version..

I want to post or [tab]
guest
You may want to rate the tab now too:
select rating
Please do not post tabs as comments. Select "correction" instead!