Oops, an error
Loading. Please wait.

Soul Rebel Bass Tab

1,499 views 3 this week
no commentswrite comment
1 2 3 4 5
1 last vote to show rating
add to favorites
launch autoscroll
font size
0
reset
guitar tuner
Autoscroll
slow
fast
+/-
esc
set tempo
stop
Help us to improve Ultimate-Guitar.com Take our survey!
×
Author
Difficulty
intermediate
Title - Soul Rebel
Artist - Bunny Wailer
Album -  Retrospective
Tabbed by - mattydread2@yahoo.com


intro
G|-----------------------------------------------------|
D|-----------------------------------------------------|
A|---1-3-3-3---1-33-33---3---3-1-1-1-----11-11---1---1-|
E|-3---------3---------3---3----------1--------3---3---|

chorus riff X 4                            Hey!  I'm a rebel
G|--------------------------------------------------|
D|--------------------------------------------------|
A|-3-3-3---1-33-33----3---3-1-1-1-----11-11---1---1-|
E|-------3----------3---3---------1-3-------3---3---|

play this to lead into verse
G|--------------------------------------------------|
D|--------------------------------------------------|
A|-3-3-3---1-33-33----3---3-1-1-1-----11-11---1-----|
E|-------3----------3---3---------1-3-------3---1-3-|


verse riff X 2
G|-------------------------------------------------|
D|-------------------------------------------------|
A|-1-1-1-----11-11---1---1-3-3-3---1-33-33---3---3-|
E|-------1-3-------3---3---------3---------3---3---|


G|------------------------------------------------------|
D|-1-1-1--1---1--33-33---3---3--------------------------|
A|----------1----------3---3---\1-1-1-----11-11---1-----|
E|------------------------------------1-3-------3---1-3-|

--11-11-- these are ones not elevens
\1= slide down to note
return to chorus, verse...
play out on chorus riff with some /\ slides and improv.
Suggest correction
Give kudos to tab author, rate the tab!
1 2 3 4 5
comments
print report bad tab
guest
You may want to rate the tab now too:
select rating
Wanna post a correction for this tab? Suggest correction