Oops, an error
Loading. Please wait.

Gachinko De Ikou tab

version 1
version 1

Whole song

Interactive

by Buono!
662 views 1 this week
no commentswrite comment
1 2 3 4 5
3 more votes to show rating
add to favorites
×
Save as Personal and add changes to this tab that will be seen only by you. Learn more ›
×
You can save this tab as Personal to edit and correct it or add notes. All changes will be seen only by you. Learn more »
launch autoscroll
font size
0
reset
how to read this tab
guitar tuner
edit
Autoscroll
slow
fast
+/-
esc
set tempo
stop
Gachinko De Ikou
by Buono!
tabbed by manOutOfTime
Key: F#
UPDATED - Ive fixed a whole lot of this on reflection.

INTRO:
-------------------------------------------------------|
-14p11-----14p11-----14p11-----14p11-------------------|
------13p11-----13p11-----13p11-----13p11--------------|
-----------------------///////////////////////////////-|
----------------------///////////////////////////////--|
-------------------------------------------------------|
                     pickscrape

INTRO RIFF:
---------------|-----------------|-------------|-/6----/9---------|
-7-6-7-/9--7-9-|-/11-/9--7\6-6\4-|-4--7--6/7-9-|------------------|
---------------|-----------------|-------------|------------------|
---------------|-----------------|-------------|------------------|
---------------|-----------------|-------------|------------------|
---------------|-----------------|-------------|------------------|

---------------|-----------------|-------------|------------------|
-7-6-7-/9--7-9-|-/11-/9--7\6-6\4-|-4--7--6/7-9-|-7----------------|
---------------|-----------------|-------------|------------------|
---------------|-----------------|-------------|------------------|
---------------|-----------------|-------------|-4444444444444444-|
---------------|-----------------|-------------|-2222222222222222-|
                                                 PM=============>
VERSE:
---------------------|---------------------|
---------------------|---------------------|
-4---------6---------|-8---------8---------|
-4---------6---------|-8---------8---------|
-2-2222222-4-4444444-|-6-6666666-6-6666666-|
---------------------|---------------------|
 B5        C#5         D#5

---------------------|---------------------|
---------------------|---------------------|
-4---------6---------|-8---------8---------|
-4---------6---------|-8---------8---------|
-2-2222222-4-4444444-|-6-6666666-6---------|
---------------------|---------------------|
 B5        C#5         D#5
Abarenbou na uchira miru yume ni genkai wa nai yo
(Sou sou sou)

-----------------|-----------------|-----------------|----------------------|
-----------------|-----------------|-----------------|----------------------|
-4---4-4-6---6-6-|-11--10--8--6--4-|-4---4-4-6---6-6-|-11---11-11---11--11--|
-4---4-4-6---6-6-|-11--10--8--6--4-|-4---4-4-6---6-6-|-11---11-11---11--11--|
-2-2-222-4-4-444-|-9---8---6--4--2-|-2-2-222-4-4-444-|-9--9-9-99----9---9---|
-----------------|-----------------|-----------------|----------------------|
 B5     C#5        F#5-F5-D#5-C#5    B5      C#5       F#5------------------|
 Kanousei hyaku-pa de umaretara        hyaku-pa de ikite iku ze

BRIDGE:
-----2-------2---|-----2-------2---|-----4-------4---|------------------|
---4-4-4---4-4-4-|---4-4-4---4-4-4-|---6-6-6---6-6-6-|-----11------11---|
-3-------3-------|-4-------4-------|-6-------6-------|---11--11--11--11-|
-4-------4-------|-4-------4-------|-6-------6-------|-11------11-------|
-----------------|-----------------|-----------------|------------------|
-----------------|-----------------|-----------------|------------------|
 PM=====================================================================
   D#m              B               C#                F#
Naitari warattari shite ironna hito ni deau

-----2-------2---|-----2-------2---|------------------|------------|
---4-4-4---4-4-4-|---4-4-4---4-4-4-|-----9999----9999-|-999999999\-|
-3-------3-------|-4-------4-------|------------------|------------|
-4-------4-------|-4-------4-------|-1111----1111-----|------------|
-----------------|-----------------|--9-9-----9-9-----|------------|
-----------------|-----------------|------------------|------------|
 =================================>
  D#m              B                 C#
Daiji na mono mitsuketari nakushitari (hai donmai)

CHORUS:
F#               D#m    B    C#
Gangan hashitte iketara sono hou ga tanoshii jan (soo jan! soo jan! )
F#              D#m
Are mo shitai kore mo shitai
    B                         C#           B
Iku zo (go! ) susume (oh! ) gachinko de ikou!

     C#    F#5      D#5       B        C#       D#m
Seka   i ni    hito    ri no   jibun no tame ni
     B      C#       F#5    D#5     B        C#       F#
Dai  suki   na ko    to wo kitto kitto mitsukete yare

INTRO RIFF

VERSE:
   B5        C#5         D#5     B5   C#5      D#5
Hazukashigari na uchira suru koi wa doki doki shiteiru
(Doki doki doki)
B5     C#5        F#5-F5-D#5-C#5    B5      C#5       F#5
Dare mo saisho wa kowagari de doushitara ii ka wakaranai

BRIDGE:
   D#m              B               C#                F#
Honto no kimochi wa naze ka yase gaman wo shiteiru
  D#m              B                 C#
Chigau koto itte mitari iwaretari (hee sou kai)

CHORUS:
F#               D#m    B    C#
Gangan hashitte iketara sono hou ga ikiteru jan (donmai! donmai! )
F#              D#m
Are mo hoshii kore mo hoshii
    B                         C#           B
Iku zo (goo! ) susume (oo! ) gachinko de ikou!

     C#    F#5      D#5       B        C#       D#m
Sou da yo yaru nara ima shika nai
     B      C#       F#5    D#5     B        C#       F#
Gaman wa dekinai dakara motto motto shitai

SOLO:
----------------------------------------------------|--18-18-16---|-----------|
-18b19\\\-------------------------------------------|-------------|-----------|
---------------15-13vvvvv----11tr------10tr11-------|-------------|-----------|
----------------------------------------------------|-------------|-----------|
----------------------------------------------------|-------------|-----------|
----------------------------------------------------|-------------|-----------|

-22-22-21----|-----------------------------------------------------|----------|
-------------|-22r21-22r21---22r21-1819-1819-------16h1816----14---|----------|
-------------|-----------------------------------------------------|----------|
-------------|-----------------------------------------------------|----------|
-------------|-----------------------------------------------------|----------|
-------------|-----------------------------------------------------|----------|

--------------------------------------------18tr-------21tr--------|----------|
-------------------------------------------------------------------|----------|
-11tr13------------------------------------------------------------|----------|
-------------------------------------------------------------------|----------|
-------------------------------------------------------------------|----------|
-------------------------------------------------------------------|----------|

-<21b-rpt--------------->-|-<21b-21p18-rpt--------->-|------------------------|
--------------------------|--------------------------|------------------------|
--------------------------|--------------------------|------------------------|
--------------------------|--------------------------|------------------------|
--------------------------|--------------------------|------------------------|
--------------------------|--------------------------|------------------------|

-18vvvvvvvvvvvvvvv-16vvvvv-|--------------------------------------------|-----|
---------------------------|-18-19-18h19p18-----------------------------|-----|
---------------------------|----------------18tr------------------------|-----|
---------------------------|----------------------------18vvvvv\\\\\\\\-|-----|
---------------------------|--------------------------------------------|-----|
---------------------------|--------------------------------------------|-----|

BRIDGE:
   D#m              B               C#                F#
Naitari warattari shite ironna hito ni deau
  D#m              B                 C#
Daiji na mono mitsuketari nakushitari (hai donmai)

CHORUS:
F#               D#m    B    C#
Gangan hashitte iketara sono hou ga tanoshii jan (soo jan! soo jan!)
F#              D#m
Are mo shitai kore mo shitai
    B                         C#           B
Iku zo (goo! ) susume (oo! ) gachinko de ikou!

     C#    F#5      D#5       B        C#       D#m
Seka   i ni    hito    ri no   jibun no tame ni
     B      C#       F#5    D#5     B        C#       F#
Dai  suki   na ko    to wo kitto kitto mitsukete yare

INTRO RIFF
Suggest correction
Creating personal tab
Creating personal tab
You can edit any tab online and save it as your Personal.

You can edit, replace or remove any tab part or add personal notes – all changes will be seen only by you.

Personal tabs can be accessed anytime from any device, even offline.
Learn more »
Give kudos to tab author, rate the tab!
1 2 3 4 5
comments
print report bad tab
guest
You may want to rate the tab now too:
select rating
Wanna post a correction for this tab? Suggest correction